Song name
# A B C D E F G H I J K L M N O P Q R S T U V W X Y Z

Dead Boys - Sonic Reducer tab

Song:Sonic Reducer
Album:Young, Loud, And Snotty
Artist:The Dead Boys
Genre:Punk Rock
Year:1977
Tuning:Standard (E,A,D,G,B,E)

Intro Pt.1 x1
E------------|
B------------|
G---8-6~~~~--|
D---8-6~~~~--|
A---6-4~~~~--|
E------------|

Intro Pt.2 x2
E-------------------------------|
B-------------------------------|
G(         Palm Muted        )--|
D-------------------------------|
A-4x8---------------------------|
E------4x8--5x7--0h2-222222-0---|

Intro Pt.3 x2
E--------------------------------------|
B--------------------------------------|
G-6-66-666-----------------------------|
D-6-66-666-6-66-666-7-77-777-4-44-444--|
A-4-44-444-6-66-666-7-77-777-4-44-444--|
E----------4-44-444-5-55-555-2-22-222--|

Verse 1 x3
E-------------------------------|
B-------------------------------|
G(         Palm Muted        )--|
D-------------------------------|
A-4x8---------------------------|
E------4x8--5x7--0h2-222222-0---|

Pre-Chorus 1 x1
E--------------------------------------|
B--------------------------------------|
G-------------------2-22-222-4-44-444--|
D-2-22-222-4-44-444-2-22-222-4-44-444--|
A-2-22-222-4-44-444-0-00-000-2-22-222--|
E-0-00-000-2-22-222--------------------|

Chorus 1 x2
E--------------------------------|
B--------------------------------|
G--------------------------------|
D-9/11-1111-111111--9/11-111111--|
A-9/11-1111-111111--9/11-111111--|
E-7/-9--9-9--9-9-9--7/-9--9-9-9--|

E-------------------|
B-------------------|
G-------------------|
D-9--7--7-9-99-999--|
A-9--7--7-9-99-999--|
E-7--5--5-7-77-777--|

Post-Chorus 1 x2
E-------------------------------|
B-------------------------------|
G(         Palm Muted        )--|
D-------------------------------|
A-4x8---------------------------|
E------4x8--5x7--0h2-222222-0---|

Then:
*Verse 2 x3
*Pre-Chorus 2 x1
*Chorus 2 x2

Solo (Rhythm) x4
E-------------------------------|
B(         Palm Muted        )--|
G-6-----------------------------|
D-6x8--6----7-------------------|
A-4----6x8--7x7-----------------|
E------4----5----0h2-222222-0---|

Bridge 1 x5
E-------------------------------|
B-------------------------------|
G(         Palm Muted        )--|
D-------------------------------|
A-4x8---------------------------|
E------4x8--5x7--0h2-222222-0---|

Then:
*Pre-Chorus 3 x1
*Chorus 3 x4

Outro x1
E--------------|
B--------------|
G--------------|
D-11~~~~~--11--|
A-11~~~~~--11--|
E--9~~~~~---9--|

Song Order:
*Intro Pt.1 x1
*Intro Pt.2 x2
*Intro Pt.3 x2
*Verse 1 x3
*Pre-Chorus 1 x1
*Chorus 1 x2
*Post-Chorus 1 x2
*Verse 2 x3
*Pre-Chorus 2 x1
*Chorus 2 x2
*Solo (Rhythm) x4
*Bridge 1 x5
*Pre-Chorus 3 x1
*Chorus 3 x4
*Outro x1

Key:
/=Slide Up
~=Let The Note Ring
h=Hammer On

Here Is A Link If You Wanna Play Along:
http://www.youtube.com/watch?v=mdu3EU6sbng

*Don't Forget To Rate And Comment
If You Liked The Tab, And Post Any Corrections,
I Welcome Corrections.
Tap to rate this tab
# A B C D E F G H I J K L M N O P Q R S T U V W X Y Z