Song name
# A B C D E F G H I J K L M N O P Q R S T U V W X Y Z

Dead By April - Trapped tab

Song:		Trapped
Artist:		Dead By April
Album:		Dead By April

Tabbed By:	Sheppy96
Email:		msheppard96googlemail.
Tuning:		Drop-D 

===================================
===================================

INTRO

E|-----------|------------------|----------------|
B|-----------|------------------|----------------|
G|-----------|.----------------.|----------------|
D|--000-000--|.-0--000-000-000-.|--0--000-8---3--|
A|--000-000--|--0--000-000-000--|--0--000-8---3--|
D|--000-000--|--0--000-000-000--|--0--000-8---3--|
    ... ...     .  ... ... ...        ...         
    >   >          >    >   >         >

VERSE 1

E|----------------------------------|----1---------------|
B|----------------------------------|----1---------------|
G|.-3--3-3--5--5-5--7--7-7--5--5-5-.|------3---5---7--\--|
D|.-3--3-3--5--5-5--7--7-7--5--5-5-.|---3-(3)--5---7--\--|
A|--1--1-1--3--3-3--5--5-5--3--3-3--|--1--(1)--3---5--\--|
D|----------------------------------|--------------------|
    .  . .  .  . .  .  . .  .  . .

CHORUS

E|----------------------------------|-------------------|
B|----------------------------------|-------------------|
G|-----------5--3-----------5-------|------5--3---------|
D|--0----3---5--3------3----5----0--|--3---5--3------5--|
A|--0----3---3--1------3----3----0--|--3---3--1------5--|
D|--0----3-------------3---------0--|--3-------------5--|


PRE-VERSE

E|-----------|------------------|----------|
B|-----------|------------------|----------|
G|-----------|.----------------.|----------|
D|--000-000--|.-0--000-000-000-.|--0--000--|
A|--000-000--|--0--000-000-000--|--0--000--|
D|--000-000--|--0--000-000-000--|--0--000--|
    ... ...     .  ... ... ...        ...         
    >   >          >    >   >         >

VERSE 2

E|----------------------------------|----1---------------|
B|----------------------------------|----1---------------|
G|.-3--3-3--5--5-5--7--7-7--5--5-5-.|------3---5---7--\--|
D|.-3--3-3--5--5-5--7--7-7--5--5-5-.|---3-(3)--5---7--\--|
A|--1--1-1--3--3-3--5--5-5--3--3-3--|--1--(1)--3---5--\--|
D|----------------------------------|--------------------|
    .  . .  .  . .  .  . .  .  . .

CHORUS x2

E|----------------------------------|-------------------|
B|----------------------------------|-------------------|
G|-----------5--3-----------5-------|------5--3---------|
D|--0----3---5--3------3----5----0--|--3---5--3------5--|
A|--0----3---3--1------3----3----0--|--3---3--1------5--|
D|--0----3-------------3---------0--|--3-------------5--|

BRIDGE

E|-----------------------------------------|-------------------------------|
B|-----------------------------------------|-------------------------------|
G|--3--------------5----3---------5--------|------------7--------5-5--3-3--|
D|--3----3----0----5----3----3----5----0---|--5----0----7---3-3--5-5--3-3--|
A|--1----3----0----3----1----3----3----0---|--5----0----5---3-3--3-3--1-1--|
D|-------3----0--------------3---------0---|--5----0--------3-3------------|

CHORUS

E|---------------|-------------------|
B|---------------|-------------------|
G|-------5-------|------5--3---------|
D|--3----5----0--|--3---5--3------5--|
A|--3----3----0--|--3---3--1------5--|
D|--3---------0--|--3-------------5--|

E|----------------------------------|-------------------|
B|----------------------------------|-------------------|
G|-----------5--3-----------5-------|------5--3---------|
D|--0----3---5--3------3----5----0--|--3---5--3------5--|
A|--0----3---3--1------3----3----0--|--3---3--1------5--|
D|--0----3-------------3---------0--|--3-------------5--|

OUTRO

E|-----------|------------------|----------------|---------|
B|-----------|------------------|----------------|---------|
G|-----------|.----------------.|----------------|---------|
D|--000-000--|.-0--000-000-000-.|--0--000-8---3--|--3m3m3m-|
A|--000-000--|--0--000-000-000--|--0--000-8---3--|--3m3m3m-|
D|--000-000--|--0--000-000-000--|--0--000-8---3--|--3m3m3m-|
    ... ...     .  ... ... ...        ...           
    >   >          >    >   >         >             > > >

===================================
===================================


.	Palm-mute

>	Accent

|:	Start repeat

:|      End repeat

()	Tied note

\	Slide-off

m	Mute string after note
Tap to rate this tab
 
# A B C D E F G H I J K L M N O P Q R S T U V W X Y Z