Song name
# A B C D E F G H I J K L M N O P Q R S T U V W X Y Z

Dead By April - Falling Behind tab

-------------------------------------------------------------------------------
                             Falling Behind  Dead By April
-------------------------------------------------------------------------------
Tabbed by: Freddy X

E-mail: fredrik_sum41@hotmail.com

Tuning: Drop-D (D-A-D-G-B-e)

Intro: (Piano)

Verse 1: 
e|----------|-----------|-----------|
B|----------|-----------|-----------|
G|----------|-----------|----3-33-33|
D|----------|-----------|----3-33-33|
A|----------|-----------|----1-11-11|
E|----------|-----------|-----------|

e|-------------|-------------|-------------|--------------------|
B|-------------|-------------|-------------|--------------------|
G|-------------|3-333-33-33-3|-------------|3-333-33-33-3-----5-|
D|0-000-00-00-0|3-333-33-33-3|0-000-00-00-0|3-333-33-33-3-3-3-5-|
A|0-000-00-00-0|1-111-11-11-1|0-000-00-00-0|1-111-11-11-1-3-3-3-|
E|0-000-00-00-0|-------------|0-000-00-00-0|--------------3-3---|


Chorus 1:
e|---------------|----------------|
B|---------------|----------------|
G|-7-------5---3-|-----5---7---3--|
D|-7---3---5---3-|-3---5---7---3--| x2
A|-5---3---3---1-|-3---3---5---1--|
E|-----3---------|-3--------------|



Verse 2: 
e|----------|-----------|-----------|
B|----------|-----------|-----------|
G|----------|-----------|----3-33-33|
D|----------|-----------|----3-33-33|
A|----------|-----------|----1-11-11|
E|----------|-----------|-----------|

e|-------------|-------------|-------------|--------------------|
B|-------------|-------------|-------------|--------------------|
G|-------------|3-333-33-33-3|-------------|3-333-33-33-3-----5-|
D|0-000-00-00-0|3-333-33-33-3|0-000-00-00-0|3-333-33-33-3-3-3-5-|
A|0-000-00-00-0|1-111-11-11-1|0-000-00-00-0|1-111-11-11-1-3-3-3-|
E|0-000-00-00-0|-------------|0-000-00-00-0|--------------3-3---|





Chorus 2:
e|---------------|----------------|
B|---------------|----------------|
G|-7-------5---3-|-----5---7---3--|
D|-7---3---5---3-|-3---5---7---3--| x2
A|-5---3---3---1-|-3---3---5---1--|
E|-----3---------|-3--------------|


Bridge: 
e|-------------------------|
B|-------------------------|
G|-3-3-5-5-----------------|
D|-3-3-5-5-0-000-0-0-000-0-| x3
A|-1-1-3-3-0-000-0-0-000-0-|
E|---------0-000-0-0-000-0-|


(Just play these open strings until the chorus starts)
e|-------------------------------------------------------------|
B|-------------------------------------------------------------|
G|-3-3-5-5-----------------------------------------------------|
D|-3-3-3-3-0-000-0-0-000-0-0-000-0-0-000-0-0-------------------|
A|-1-1-3-3-0-000-0-0-000-0-0-000-0-0-000-0-0-------------------|
E|---------0-000-0-0-000-0-0-000-0-0-000-0-0-------------------|



Chorus 3:
e|---------------|----------------|
B|---------------|----------------|
G|-7-------5---3-|-----5---7---3--|
D|-7---3---5---3-|-3---5---7---3--| x4
A|-5---3---3---1-|-3---3---5---1--|
E|-----3---------|-3--------------|


Outro:
e|------------------------------------------------------------|
B|------------------------------------------------------------|
G|------------------------------------------------------------|
D|-0-000-0-0-00-0-0-------------------------------------------|
A|-0-000-0-0-00-0-0-------------------------------------------|
E|-0-000-0-0-00-0-0-------------------------------------------|


(This is my first tab and it may not be 100% correct. This is how I play it but 
feel free to give me feedback)
Tap to rate this tab
 
# A B C D E F G H I J K L M N O P Q R S T U V W X Y Z