Song name
# A B C D E F G H I J K L M N O P Q R S T U V W X Y Z

Dead Letter Circus - Next In Line tab

------------------------------------------------------------
Next In Line - Dead Letter Circus
------------------------------------------------------------
Tabbed by: Kristyn Lee
Email: spot_the_village_loony_836@hotmail.com

Tuning: drop D

Intro
they use an effect through this part
e|--------------------------|
B|--------------------------|
G|-------1-3----------------|
D|---1-4--------------------|
A|--------------------------|
D|--------------------------|
  (1's not elevens)
e|-------------------------|
B|-------------------------|
G|-------------------------|x3
D|---1111--4x4x4-444-------|
A|-------------------------|
D|-------------------------|
     ....
e|-------------------|
B|-------------------|
G|-------------------|
D|----7777777766-----|
A|----xxxxxxxxxx-----|
D|----4444444433-----|

e|----------------------------------------------|
B|----------------------------------------------|
G|----------------------------------------------|
D|---------4x4x4-444-x-4x4x4-444-x-4x4x4-444----|
A|----------------------------------------------|
D|---1111---------------------------------------|
     ....
e|-------------------|
B|-------------------|
G|-------------------|
D|----7777777766-----|
A|----xxxxxxxxxx-----|
D|----4444444433-----|

verse    listen for timing
e|----------------------------------------|
B|---7-7-7-7-777-7-7-7-777----------------|
G|----------------------------------------|
D|----------------------------------------|
A|----------------------------------------|
D|----------------------------------------|
pre-chorus
e|---11----16---14-16--11----14-13-----------|
B|-------------------------------------------|
G|-------------------------------------------|
D|-------------------------------------------|
A|-------------------------------------------|
D|-------------------------------------------|


repeat verse and pre-chorus
i think the chorus might be the same as the riff above


last chorus
e|-------------------------------------------------|
B|-------------------------------------------------|
G|---------------------88888888-1111111111111111---|x3
D|--666666/88/99999999-88888888-1111111111111111---|
A|--666666/88/99999999-66666666-9-9-9-9-9-9-9-9----|
D|--666666/88/99999999-----------------------------|

e|--------------------------|
B|--------------------------|
G|--------------------------|
D|---666666/88/99999999-----|
A|---666666/88/99999999-----|
D|---666666/88/99999999-----|

outro
e|----------------------------------------------|
B|----------------------------------------------|
G|----------------------------------------------|x2
D|---------4x4x4-444-x-4x4x4-444-x-4x4x4-444----|
A|----------------------------------------------|
D|---1111---------------------------------------|

| .  palm mute
| /  slide up
| \  slide down
| h  hammer-on
| p  pull-off
| ~  vibrato
| +  harmonic
| x  Mute note
======================================================
Tap to rate this tab
 
# A B C D E F G H I J K L M N O P Q R S T U V W X Y Z