Song name
# A B C D E F G H I J K L M N O P Q R S T U V W X Y Z

Dead Poetic - New Medicines tab

ARTIST: Dead Poetic
TITLE:  New Medicine
TABBED BY: Chris Jones, THIS NIGHT WITHOUT
WEBB: www.thisnightwithoutrock.com
EMAIL: info@thisnightwithoutrock.com

COMMENTS:
Hi! This is the first song I've ever tabbed and put out on the webb, but I know
this is 100% right, well at least the most accurate. I've played guitar for a while now,
I've also tabbed some CITY SLEEPS songs that I will submit here on UG.
I play in group called THIS NIGHT WITHOUT... 
Please check us out at: www.thisnightwithoutrock.com


Drop D


Intro w/ phaser

  ---------------------------------P.M--------------------------------
e|----------------------------------|----------------------------------|
B|---------5----------------5-------|---------5----------------5-------|
G|-----4-------6--------4-------6---|-----4-------6--------4-------6---|
D|---6---6---6---6----6---6---6---6-|---6---6---6---6----6---6---6---6-|
A|----------------------------------|----------------------------------|
D|-4----------------4---------------|-0----------------0---------------|

VERSE 1

e|------------------------------------------------|
B|------------------------------------------------|
G|------------------9-9-9-------4-4-4-------4-4-4-|
D|-4-4-4-4----4-4-4-x-x-x-0-0-0-x-x-x-0-0-0-x-x-x-|
A|-4-4-4-4----4-4-4-7-7-7-0-0-0-2-2-2-0-0-0-2-2-2-|
D|-4-4-4-4----4-4-4-------0-0-0-------0-0-0-------|

CHORUS 1

e|----------------------------------------------------------------|
B|----------------------------------------------------------------|
G|------------------6----6---6--6---9----9---9--9---6----6---6--6-|
D|-11---11--11-11---4----4---4--4---0----0---0--0---4----4---4--4-|
A|--9----9---9--9---4----4---4--4---0----0---0--0---4----4---4--4-|
D|--9----9---9--9---4----4---4--4---0----0---0--0---4----4---4--4-|

VERSE 2 0:46

e|-----------------------------------------------------------|
B|-----------------------------------------------------------|
G|-6-6--6-6-6--6-6-6--6-6-6--4--6-6--6-6-6--6-6-6--6-6-6-6-6-|
D|-4-4--4-4-4--4-4-4--4-4-4--2--0-0--0-0-0--0-0-0--0-0-0-0-0-|
A|-4-4--4-4-4--4-4-4--4-4-4--2--0-0--0-0-0--0-0-0--0-0-0-0-0-|
D|-4-4--4-4-4--4-4-4--4-4-4--2--0-0--0-0-0--0-0-0--0-0-0-0-0-|

CHORUS 2

e|-------------------------------------------------------------------------|
B|-------------------------------------------------------------------------|
G|-----------------11-11-11-11-11-11-11-11---9----9---9--9---6----6---6--6-|
D|-11---11--11-11----------------------------0----0---0--0---4----4---4--4-|
A|--9----9---9--9---9--9--9--9--9--9--9--9---0----0---0--0---4----4---4--4-|
D|--9----9---9--9----------------------------0----0---0--0---4----4---4--4-|

FILL 2:25

e|-----9-9-9-9-9-9-9-9-7-7-7-7/12-12-12-12------------|
B|-9---------------------------------------10--/--7---|
G|----------------------------------------------------|
D|----------------------------------------------------|
A|----------------------------------------------------|
D|----------------------------------------------------|

BRIDGE 2:39

e|---------------------------------2p0---------------2p0-------|
B|------------------------------------2p0---------------2p0----|
G|-------9-9-9-------7-6-6-------------------------------------|
D|-4-4-4-------4-4-4--------0-0-0---------4---0-0-0---------4--|
A|-4-4-4-7-7-7-4-4-4-5-4-4--0-0-0---------0---0-0-0---------0--|
D|-4-4-4-------4-4-4--------0-0-0-------------0-0-0------------|


LYRICS:

These are the words that tear you apart
And these are the words that take you away
And these are just words, they'll tear you apart
When no one here will say what needs to say

New medicines should ease this pain
They're the only ailment for it

It's this air and time that's bringing me home again
A lame attempt at playing the part again now
In a place you don't know
And this stance as sturdy as leaves in a storm
The premise and motive fueling blank faces
The fool in a place you don't know
In this place, you don't

New medicines should ease this pain
They're the only ailment for it 
All over again

These are the words that tore me apart
And these are the words that'll take me away
I'm not in the business of faking to please vain opposers
A dead legion of new, cloned followers
You're cornered in a place you don't know
In this world, you don't...
Tap to rate this tab
# A B C D E F G H I J K L M N O P Q R S T U V W X Y Z