Song name
# A B C D E F G H I J K L M N O P Q R S T U V W X Y Z

Deadlines - Trouble tab

Band: Deadlines
song: Trouble

Tabber: John Cukras
email: riffreaper@yahoo.com

Tuning: normal

Riff 1:
E-------------------------|
B-------------------------|
G--------------2-22-------|
D-2--------222-2-22-------|
A-2-66-666-222-0-00-------|
E-0-44-444-000----- x's 6-|

Riff 2:    A                                B
E----------------------------------------|----------------|
B----------------------------------------|----------------|
G----------------------------------------|----------------|
D--------------2---2-----2---2-----------|----------------|
A-666666-77777-2---2-----2---2-----------|-6666666-777777-|
E-444444-55555-0-0-0-000-0-0-0-000 x's 3-|-4444444-555555-|
pm               .   ...   .   ...

Riff 1

Riff 2

Riff 3:
E---------------------------------|
B---------------------------------|
G----7-9-10-10-10^^-10-10-9-7-----|
D-7---------------------------5/7-|
A---------------------------------|
E---------------------------------|

Riff 2: A

End:
E---------|
B---------|
G---------|
D------22-|
A-6-7--22-|
E-4-5--00-|
Tap to rate this tab
 
# A B C D E F G H I J K L M N O P Q R S T U V W X Y Z