Song name
# A B C D E F G H I J K L M N O P Q R S T U V W X Y Z

Deadmau5 - Strobe tab

INTRO

   Abm
E------------------------------------------------------------------|
B------------------------------------------------------------------|
G---4---4---4---4---4---4---4---4---4---4---4---4---4---4---4---4--|
D------------------------------------------------------------------|
A------------------------------------------------------------------|
E-4---4---4---4---4---4---4---4---4---4---4---4---4---4---4---4----|

E------------------------------------------------------------------|
B------------------------------------------------------------------|
G---4---4---4---4---4---4---4---4---4---4---4---4---4---4---4---4--|
D------------------------------------------------------------------|
A------------------------------------------------------------------|
E-4---4---4---4---4---4---4---4---4---4---4---4---4---4---4---4----|

E----------------|
B----------------|
G---4---4---6----|
D----------------|
A----------------|
E-4---4---4---4--|


VERSE

   C#m      E                       Abm            C#m
E------------------------------------------------------------------|
B-5-------4---------------5-------5-------4-------5-----------0----|
G-------------4---------------4-------4-------4-----------3--------|
D-----6-----------4---6--------------------------------------------|
A---4---4-------------------------------------------4---4---4---4--|
E-----------0---0---0---0---0---0---4---4---4---4------------------|

   F#       Abm                                           B
E-2---------------2--------------4-------2--------0----------------|
B-----2---4---------------------------------------------------0----|
G-------------4-------4---3---4-------3-------4-----------3--------|
D------------------------------------------------------------------|
A-----------------------------------------------------------2---2--|
E---2---2---4---4---4---4---4---4---4---4---4---4---4---4----------|

   C#m      E                                      C#m
E-4----------------------------------------------------------------|
B---------4-------5-------5-------5-------4-------5-----------0----|
G-------------4-------4-------4---------------4-----------3--------|
D-----6-------------------------------6----------------------------|
A---4---4-------------------------------------------4---4---4---4--|
E-----------0---0---0---0---0---0---0---0---0---0------------------|

   F#       Abm
E-2---------------2-------2-------2-------4-------0----------------|
B-----2---4--------------------------------------------------------|
G-------------4-------4-------4-------3-------4-------4---4---6----|
D------------------------------------------------------------------|
A------------------------------------------------------------------|
E---2---2---4---4---4---4---4---4---4---4---4---4---4---4---4---4--|

Repeat verse.
Tap to rate this tab
 
# A B C D E F G H I J K L M N O P Q R S T U V W X Y Z