Song name
# A B C D E F G H I J K L M N O P Q R S T U V W X Y Z

Deaf Children Playing - Amy tab

Help us improve GuitareTab! Take a short survey!
Song: Amy
Band: Deaf Children Playing
Album: Everything is Going to Be Alright (2008)

Tuning: Standard

Intro:  
     G          G/B  C                   (4x)
e|------------------------------------------|
B|------------------------------------------|
G|---7h9-7----------------------------------|
D|-----------9-9-7-----7--------------------|
A|-----------------10----10-9-10--10-7-10---|
E|------------------------------------------|

G                        G/B C
Weve tried so hard dear to make it
       G                 G/B  C
But nothing seems to come out right
        G              G/B   C
The things that you do dont go well with me
      G               G/B  C
We seem to do nothing but fight

          Am     D
And I say hey
           G              G/B         C
I tried to make it just a little more fun
Am    D
Hey
           G              G/B      C
I tried to make it so you wouldnt run
       A7
Out on me

Guitar Solo:     
      G          G/B C                 G       G/B C              G        
e|-------------------------------------------------------------10h12-10------|
B|----------10-10----10-12-10----10-------10-12-10-13-12-10------------12-12-|
G|--7h9-/12-------12----------12-----12---------------------12---------------|
D|---------------------------------------------------------------------------|
A|---------------------------------------------------------------------------|
E|---------------------------------------------------------------------------|
 
   G/B    C                  G        G/B C                      (Am)
e|--------------------------------------------------------------------|
B|-10----10------------------7-------------------------------------8--|
G|----12----12-9-12-12-9-12--7h9p7--7-------------------------7-7h9---|
D|----------------------------------7h9p7------------5-5h6h7/9-9------|
A|----------------------------------------------3h5/7-7---------------|
E|----------------------------------------15\3h5----------------------|

          Am     D
And I say hey
           G              G/B         C
I tried to make it just a little more fun
Am    D
Hey
           G              G/B      C
I tried to make it so you wouldnt run
       A7
Out on me

G                      G/B  C
Im not gonna stop you from leaving
G                   G/B    C
Im not gonna stand by the door 
G                    G/B   C
I can believe things I am hearing
G                     G/B   C
I know I can love you once more

            Am    D
Did you say hey?
           G                      G/B     C
Why do you shout out those things dear to me?
Am     D
Hey
    G                  G/B      C
You know damn well how it would be
              A7
Heres what I see youd leave me here with my tears
                           
G    G/B C   (4x) w/intro riff
Related for Amy tab