Guitaretab - guitar tabs
Song name
# A B C D E F G H I J K L M N O P Q R S T U V W X Y Z

Dean Del Ray - Highway tab

Megaman X  Highway (Opening Stage)
Music by Megaman X(SNES)
By Wesley Pires (wesleypires_2@hotmail.com)

E -------------------------------------3----------3h4-3-----------------|
B ----3/4------------3/4-------------4---6-4-3----------6-4-3-4---3-4-6-|
G -------3-4-5~----------3-4-5-----5-----------3----------------5-------|
D ----------------------------------------------------------------------|
A ----------------------------------------------------------------------|
E ----------------------------------------------------------------------|


E --------|
B 3-4-3---|
G -----3--|
D ------5-|
A --------|
E --------|

E --------------------------------------------3/4-3---8-6-4-------------|
B ---3/4--------3/4-------------4---6-7-6-4\1-------6-------6~----3-4-6-|
G ------3-4-5~------3-4-5---4h5---5-------------------------------------|
D ----------------------------------------------------------------------|
A ----------------------------------------------------------------------|
E ----------------------------------------------------------------------|

E -------3-----|
B -3-4-6---8~--|
G -------------|
D -------------|
A -------------|
E -------------|
[ Tab from: http://www.guitaretab.com/d/dean-del-ray/122232.html ]
	     
E ------8---11p10-------------------------------------------------------|
B -6-9------------h11p8----------------------------------3-4---64p3----|
G ----------------------7---7h8p7---------7-8---10p8p7--5----5-------5-3|
D --------------------------------10--10--------------------------------|
A ----------------------------------------------------------------------|
E ----------------------------------------------------------------------|

E ---------------------3-|
B ---------3-6-4-6-4-6---|
G -----3-----------------|
D -3-5---5---------------|
A -----------------------|
E -----------------------|

E ---------------3---------------11-10-8---11-10-8--------------------3-|
B ---3-5------3--6-3-4---9----9---------8---------9-6-3----------3-4---|
G -3/5----5-------------5---10---------------------------3----3/5-------|
D -----------5---------------------------------------------5------------|
A ----------------------------------------------------------------------|
E ----------------------------------------------------------------------|

E -------------------3~|
B 4/6--4-3-6-----3-6---|
G -------------3-------|
D -----------5---------|
A ---------------------|
E ---------------------|