Song name
# A B C D E F G H I J K L M N O P Q R S T U V W X Y Z

Dear Sherlock - Alice tab

S-slide
P-PALM MUTe
 
E--------------------------------|
B--------------------------------|     
G---5-5-5-6--5-5-5-6--5-5-5-6-5--|
D---5-5-5-6--5-5-5-6--5-5-5-6-5--|     x4 until the solo, but keeps playing during the solo
A---3-3-3-4--3-3-3-4--3-3-3-4-3--|
E--------------------------------|
                 S                 S               S     P

E---15-13-15-16-15-13-15-13------13----|
B----------------------------16-15---13|
G--------------------------------------|
D--------------------------------------|   x3 on the last note,13 on the b string, slide it back
A--------------------------------------|        up the b string to create effect.
E--------------------------------------|


Dear Sherlock is awesome !
Tap to rate this tab
# A B C D E F G H I J K L M N O P Q R S T U V W X Y Z