Song name
# A B C D E F G H I J K L M N O P Q R S T U V W X Y Z

Death Cab For Cutie - All Is Full Of Love tab

Hi guys this is m first tab here hope you like it...

Intro

e ----------------------------------------------------------------------------|
b ----------------------------------------------------------------------------|
g ----------------------------------------------------------------------------|
d ----------------------------------------------------------------------------|
a -2--2--2--2--2--2--2--2---------------------------3--3--3--3--3--3--3--3----|
E --------------------------3--3--3--3--3--3--3--3----------------------------|

e ------------------------------------------------------------------------------|
b ------------------------------------------------------------------------------|
g ------------------------------------------------------------------------------|
d ------------------------------------------------------------------------------|
a -3--3--3--3--3--3--3--3-------------------------------------------------------|
E ------------------------------------------------------------------------------| x3

Chorusish

e ----------------------------------------------------------------------------|
b ----------------------3-----------------------------------------------------|
g -----------4-------------2--------------------------------------------------|
d --------5-----------4-------------------------------------------------------|
a --5--7-----------2----------------------------------------------------------|
E ----------------------------------------------------------------------------| x4

& so on like that (if you can't figure out the rest, which is similar to this, try harder).
Tap to rate this tab
# A B C D E F G H I J K L M N O P Q R S T U V W X Y Z