Song name
# A B C D E F G H I J K L M N O P Q R S T U V W X Y Z

Death From Above 1979 - Black History Month tab

ok this is my first tab but i think it is correct. this song is actually played on the 
but it sounds good as well on the guitar. also could probally be played the same way on a 
maybe up an octave.

tabbed by Mason Thrall

intro and verse
e---------------------------------------------------------------------------|
b---------------------------------------------------------------------------|
g---------------------------------------------------------------------------|
d---------------------3-3-3-3-3-3-3---------------------3-3-3-3-------------|
a---------------------------------------------------------------1-1-1-------|
d-0h3h5-5-5-5-5-5-5------------------0h3h5-5-5-5-5-5-5----------------------|

e---------------------------------------------------------------------------|
b---------------------------------------------------------------------------|
g---------------------------------------------------------------------------|
d---------------------3-3-3-3-3-3-3-----------------------------------------|
a-------------------------------------------------------6-6-6-6-3-3-3-------|
d-0h3h5-5-5-5-5-5-5------------------0h3h5-5-5-5-5-5-5----------------------|

chorus
e---------------------------------------------------------------------------|
b---------------------------------------------------------------------------|
g---------------------------------------------------------------------------|
d---------------------------------------------------------------------------|
a---------------1-1-------------1-1-------------3-3-------------------------|
d-5-5-5-5-5-5-5-----3-3-3-3-3-3-----1-1-1-1-1-1-----0-0-0-0-0-0-0-----------|

e---------------------------------------------------------------------------|
b---------------------------------------------------------------------------|
g---------------------------------------------------------------------------|
d---------------------------------------------------------------------------|
a-----------------1-1-------------1-1-------------3-3-----------------------|
d-0h3h5-5-5-5-5-5-----3-3-3-3-3-3-----1-1-1-1-1-1-----0-0-0-0-0-0-0---------|

heavy end chorus
e---------------------------------------------------------------------------|
b---------------------------------------------------------------------------|
g---------------------------------------------------------------------------|
d-------5-5-5-5-5-----3-3-3-3-3-3-----1-1-1-1-1-1-----0-0-0-0-0-0-0---------|
a-------5-5-5-5-5-1-1-3-3-3-3-3-3-1-1-1-1-1-1-1-1-3-3-0-0-0-0-0-0-0---------|
d-0h3h5-5-5-5-5-5-----3-3-3-3-3-3-----1-1-1-1-1-1-----0-0-0-0-0-0-0---------|


order

intro/verse x3
chorus x1
verse x3
chorus x2
verse x1 (keyboard solo)
heavy chorus x7
verse x2

thats it i think!
Tap to rate this tab
# A B C D E F G H I J K L M N O P Q R S T U V W X Y Z