Song name
# A B C D E F G H I J K L M N O P Q R S T U V W X Y Z

Death - Individual Thought Patterns tab

.  - palm mute                          ph - pinched harmonic
/  - slide up to                        ah - artificial harmonic
\  - slide down to                      hr - harmonic
~  - vibrato                            p  - pull off
bf - bend full                          h  - hammer on
() - ghost note

1.) Overactive Imagination

--Drum Fill--

[Opening Riff]
[--------------|----------------------------------|---------------------]
[--------------|----------------------------------|---------------------]
[*-------------|----------------------------------|--------------------*]GTR
[*-----7-10~---|----------------------------------|-----7-9--10-9------*] I
[--7-8---------|-00000000000000000000000000000000-|-7-8-----------10~---]
[--------------|-|______________32______________|-|---------------------]
   . . .         ................................   . . .

[--------------|----------------------------------|---------------------]
[-------10-13~-|----------------------------------|------1012-1312------]
[*-9-10--------|----------------------------------|-9-10-----------12~-*]GTR
[*-------------|----------------------------------|--------------------*] II
[--------------|-00000000000000000000000000000000-|---------------------]
[--------------|-|______________32______________|-|---------------------]
   .  .  .       ................................   .  .  .

[------------------------]
[------------------------]
[*----------------------*]GTR
[*----------------------*] I
[--88888888888888888888--]
[--|________20________|--]
   ....................

[------------------------]
[------------------------]
[*----------------------*]GTR
[*----------------------*] II
[--88888888888888888888--]
[--|________20________|--]
   ....................


--Opening Riff again for a total of two times.--


[Riff 1]
[-------------------|-------------------]
[-------------------|-------------------]
[*------------------|------------------*]GTRS
[*------------------|------------------*]I&II
[--2_3_2---5-2------|-------------------]
[---h-p--3-----0----|-0000000000000000--]
                      |______16______|

[-------------------|-------------------]
[-------------------|-------------------]
[*------------------|------------------*]GTRS
[*------------------|------------------*]I&II
[--2_3_2---5-2------|-------------------]
[---h-p--3-----3----|-3333333333555555--]
                      |___10___||__6__|


--Play Riff 1 again 2 times for a total of 3 times.--


[Riff 1.a]
[-------------------|-------------------]
[-------------------|-------------------]
[*------------------|------------------*]GTRS
[*------------------|------------------*]I&II
[--2_3_2---5-2------|-------------------]
[---h-p--3-----0----|-0000000000000000--]
                      |______16______|

[-------------------|-------------------]
[-------------------|-------------------]
[*------------------|------------------*]GTRS
[*------------------|------------------*]I&II
[--2_3_2---5-2------|-------------------]
[---h-p--3-----3----|-3-3-3-3-3-3-3-3---]
                      |______8______|


[Fill 1]
[------------]
[------------]
[*----------*]Gtrs
[*----------*]I&II
[--00000000--]
[--|___8___|-]
   ........


[Riff 2]
[--------------------------|----------------------------------]
[--------------------------|----------------------------------]
[*-------------------------|---------------------------------*]GTRS
[*-5_7--------5_7-7_8-8_7--|--------5_7------5_7-7_8---------*]I&II
[---h--000000--h---h---p---|-000000--h--0000--h---h--5--------]
[--------------------------|---------------------------6-5~---]
       ......                ......     ....

[Riff 2.a]                                  (Last 2 times only)
[--------------------------|----------------------------------]
[--------------------------|----------------------------------]
[*-7_9-------7_9-9_10-10_9-|--------7_9------7_9-9_10--------*]GTR
[*--h---------h---h-----p--|---------h--------h---h----------*]III
[------000000--------------|-000000-----0000----------5-------]
[--------------------------|----------------------------6-5~--]
       ......                ......     ....


--Play Riff 2 + Fill 1 (on each ending) again 3 times for a total of 4 times.--


[Riff 3]
[-------------------------|-------------------------------]
[-------------------------|-------------------------------]
[*------------------------|------------------------------*]GTRS
[*------------------------|---------------7-----------12-*]I&II
[--------7-----------7----|-8-------8-7---^-----8-7----^--]
[--0-0-0-^-0-0-0-0-0-^-10-|-^-0-0-0-----0---0-0-----0-----]
   . . .   . . . . .   .      . . .     .   . . . . .

[-------------------------|-------------------------------]
[-------------------------|-------------------------------]
[*------------------------|------------------------------*]GTRS
[*------------------------|---------------7-----------5--*]I&II
[--------7-----------7----|-8-------8-7---^-----8-7---^---]
[--0-0-0-^-0-0-0-0-0-^-10-|-^-0-0-0-----0---0-0-----0-----]
   . . .   . . . . .   .      . . .     .   . . . . .


--Play Riff 3 again 3 times.--


[Riff 4]
[-------------------|-----------------------]
[-------------------|-----------------------]
[*------------------|----------------------*]GTRS
[*-2--------------4-|-5--------------------*]I&II
[--2--2-2-2-2-2-2-4-|-5--5-5-5-5-5-5-5-5-5--]
[--0--0-0-0-0-0-0-2-|-3--3-3-3-3-3-3-3-3-3--]
   ^  . . . . . . ^   ^  . . . . . . . . .

[-------------------|-----------------------]
[-------------------|-----------------------]
[*------------------|----------------------*]GTRS
[*-7--------------9-|-10----------------12-*]I&II
[--7--7-7-7-7-7-7-9-|-10--101010101010--12--]
[--5--5-5-5-5-5-5-7-|-8---8-8-8-8-8-8---10--]
   ^  . . . . . . ^   ^   . . . . . .    ^


--Play Riff 4 again 3 times for a total of 4 times.--


[Chuck's Solo]
[----------------------------------------------------------------]
[--------------------------------------12-12~--------------------]
[*-9~------------9-11-12~---11-12-11~---------------------------*]GTR
[*--------------------------------------------------------------*]III
[----------------------------------------------------------------]
[----------------------------------------------------------------]

[--12-13-12-10----------------------------------12/15------------]
[--------------13-12-10-----------------------12--sl-------------]
[*----------------------10-9--------------9-12------------------*]GTR
[*---------------------------12-10-9-----9----------------------*]III
[------------------------------------7-10------------------------]
[----------------------------------------------------------------]

[--12-------12----------------------12/15----14-14--14-----------]
[-----13\12---12------------------12--sl----------13--12---------]
[*------sl------14-14~--------9-12----------------------14-14~--*]GTR
[*---------------------------9----------------------------------*]III
[------------------------7-10------------------------------------]
[----------------------------------------------------------------]

[-----12----12--------------14-12-----12-----12------------------]
[--------15----12~----------------12-(12)------12-10-12-13-12-10-]
[*-14-----------------------------------------------------------*]GTR
[*--------------------------------------------------------------*]III
[----------------------------------------------------------------]
[----------------------------------------------------------------]

                         --tremolo picking very fast--
[----------------------------------------------------------------]
[-------------------------13-12-10-13-12-10-13-12-10--12ah~------]
[*12-11-9------9------------------------------------------------*]GTR
[*-------12-10---10-9~------------------------------------------*]III
[----------------------------------------------------------------]
[----------------------------------------------------------------]

[------------------------------------------------------]
[--12-13-12-10-------------------------10~-------------]
[*-------------12-10-10~----9--11--12-----------------*]GTR
[*----------------------------------------------------*] I
[------------------------------------------------------]
[------------------------------------------------------]

[------------------------------------------------------]
[------------------------------------------------------]
[*-9--10-9--7--------------------------7~-------------*]GTR
[*-------------10-9--9~-----7--9---10-----------------*]III
[------------------------------------------------------]
[------------------------------------------------------]

[--14-15-17-15-14~----------14-15-17-15-14~------------]
[------------------------------------------------------]
[*----------------------------------------------------*]GTR
[*----------------------------------------------------*] I
[------------------------------------------------------]
[------------------------------------------------------]

[------------------------------------------------------]
[------------------------------------------------------]
[*----------------------------------------------------*]GTR
[*-9--10-12-10-9~-----------9--10-12-10-9~------------*]III
[------------------------------------------------------]
[------------------------------------------------------]

[-14-15-12-14-12-14-15-14_15_14_12-14_15_14_12---------]
[------------------------h--p--p-----h--p--p---15_13_12]
[*-----------------------------------------------p--p-*]GTR
[*----------------------------------------------------*]III
[------------------------------------------------------]
[------------------------------------------------------]

[------------------------------------------------------]
[-15_13_12-12_15_13_12-13-12-10------------------------]
[*--p--p-----h--p--p------------14-12-10--------------*]GTR
[*--------------------------------------14-12-10-9~---*]III
[------------------------------------------------------]
[------------------------------------------------------]


[Riff 5.a]
[-------------------------]
[-------------------------]
[*-9-8----10-9----9-8----*]GTRS
[*-----10------10-----9--*]I&II
[---------------------*---]
[-------------------------]


--Play Riff 5.a again 2 times for a total of 3 times.--


[Riff 5.b] (one time only)
[-------------------------]
[-------------------------]
[*-9-8----10-9----9-8----*]GTRS
[*-----10------10-----9~-*]I&II
[-------------------------]
[-------------------------]


[Riff 5.c]
[-------------------------------|--------------------------------]
[-------------------------------|--------------------------------]
[*-------------9-8--10-9--9-8---|--------------9-8--10-9--9-8---*]GTRS
[*-7-----9--------10----10---9~-|-10-----9--------10----10---9~-*]I&II
[--^00000^00000-----------------|--^66666^66666------------------]
[-------------------------------|--------------------------------]
    ..... .....                     ..... .....


--Play Riff 5.c a total of 4 times.--


[Riff 6.a]  (3 times)         [Riff 6.b]   (once)
[-------------------]         [-----------------]
[-------------------]         [-----------------]
[*-----------------*]GTR      [*---------------*]GTR
[*-11-12-11-9------*] I       [*-9-------------*] I
[------------12-11--]         [---12-11-9-------]
[-------------------]         [----------12-11--]

            (3 times)                      (once)
[-------------------]         [-----------------]
[-------------------]         [-----------------]
[*-----------------*]GTR      [*---------------*]GTR
[*-6--7--6--4------*] II      [*-4-------------*] II
[------------7--6---]         [---7--6--4-------]
[-------------------]         [----------7--6---]


[Riff 7]
[----------------------|------------------------]
[----------------------|------------------------]
[*---------------------|-----------------------*]GTRS
[*---------------------|-----------------------*]I&II
[--------9-10-9--------|-------11-12-11-9-------]
[--999999------12-11-9-|-888888----------12-11--]
   ......                ......

[----------------------|------------------------]
[----------------------|------------------------]
[*---------------------|-----------------------*]GTRS
[*---------------------|-----------------------*]I&II
[--------9-10-9--------|---------------9-11-12--]
[--999999------12-11-9-|-888888-9-11-12---------]
   ......                ......


--Play Riff 7 4 times.--


[Riff 8]
[--------------------------|--------------------------]
[--------------------------|--------------------------]
[*-7----7----7----7--------|-------------------------*]GTRS
[*---5----5----5-----------|-------------------7-----*]I&II
[------5----5----5--5-7-8~-|-------------------5------]
[--------------------------|-4-4-4-4-4-4-4-4-4-^------]
                             . . . . . . . . .

[--------------------------|--------------------------]
[--------------------------|--------------------------]
[*-7----7----7----7--------|-------------------------*]GTRS
[*---5----5----5-----------|-------------------6-----*]I&II
[------5----5----5--5-7-8~-|-------------------4------]
[--------------------------|-4-4-4-4-4-4-4-4-4-^------]
                             . . . . . . . . .

[--------------------------|--------------------------]
[--------------------------|--------------------------]
[*-7----7----7----7--------|-------------------------*]GTRS
[*---5----5----5-----------|-------------------7-----*]I&II
[------5----5----5--5-7-8~-|-------------------5------]
[--------------------------|-4-4-4-4-4-4-4-4-4-^------]
                             . . . . . . . . .

[--------------------------]
[--------------------------]
[*-7----7----7----7-------*]GTRS
[*---5----5----5----5-----*]I&II
[------5----5----5----5----]
[--------------------------]


Play Riff 1   3 times
Play Riff 1.a 1 time
Play Riff 2   1 time
Play Riff 2 + Fill 1 (on each ending) again 3 times for a total of 4 times.
Play Riff 3   2 times

2.) In Human Form

Riff A
[---------------------------------------------]
[---------------------------------------------]
[*-------------------------------------------*]GTR I
[*-------------------------------------------*]
[--4-------------------2---------5------------]
[----222-2-2-4-222-2-2---000-0-0---333-3-3----]
     ... . .   ... . .   ... . .   ... . .

[---------------------------------------------]
[---------------------------------------------]
[*-------------------------------------------*]GTR II
[*-------------------------------7-----------*]
[----------------------------------555-5-5----]
[---------------------------------------------]
                                   ... . .

[---------------------------------------------]
[---------------------------------------------]
[*-------------------------------------------*]GTR I
[*-------------------------------------------*]
[--4-------------------2---------5------------]
[----222-2-2-4-222-2-2---000-0-0---333-3-3----]
     ... . .   ... . .   ... . .   ... . .

[---------------------------------------------]
[---------------------------------------------]
[*-----6-------------------4-----2-----2-----*]GTR II
[*-444---4-4-444-6-4-4-222---2-2---0-0---0-0-*]
[---------------------------------------------]
[---------------------------------------------]
   ...   . . ...   . . ...   . .   . .   . .


Play Riff A two times


Riff B
[-----------------------------------]
[-----------------------------------]
[*---------------------------------*]GTRS I
[*----------------------7----------*]  & II
[----------5h7~-----------8-5-8-7~--]
[--0-0-0-0------0-0-0-0-------------]
   . . . .      . . . .   . . .

[--------------------------------------------------]
[--------------------------------------------------]
[*------------------------------------------------*]GTRS I
[*------------------------------------------------*]  & II
[----------5h7~-----7-----5--7-----5--7-----5~-----]
[--0-0-0-0------0-0---5-3------5-3------5-3----3~--]
   . . . .      . .   . .      . .      . .


Play Riff B three times


Riff C.1 [Palm mute throughout w/Solos 1&3]
[----------------------------------------------------------------]
[----------------------------------------------------------------]
[*--------------------------------------------------------------*]GTRS I
[*--------------------------------------------------------------*]  & II
[------------------------------------22222222-11111111-----------]
[--0000000000000000-3333333333333333-------------------11111111--]
   |______________| |______________| |_______||______| |______|
        --16--           --16--        --8--   --8--     --8--

[Solo 1: Andy LaRoche]
      _________________________________________________ [pick scrapes]
[----|                --Gradual Bends--                |-------/X\---]
[--12_81/2b~r-13_81/2b~r-15_81/2b~r-13_81/2b~r-12_81/2b~-r(8/\)slsl--]
[*--tp---------tp---------tp---------tp---------tp----------sl------*]
[*------------------------------------------------------------------*]
[--------------------------------------------------------------------]
[--------------------------------------------------------------------]

                           [Rev. sweep -]      [--Arpeggios
[--19_fb+1/2~~~~15_12-0000-||-12-------------------------------------]
[-[a.h.]----------p--------||----12----------------------------12----]
[*-------------------------||-------12---------------------12-------*]
[*-------------------------||----------14~~~~~~--------14-----------*]
[----------------------------------------------10--14----------------]
[--------------------------------------------------------------------]

[con't]                                     End Arpeggios--]
[--12--15-12----------------------/19-15-----------------------------]
[-------------12--------------12----------17-------------------------]
[*----------------12------12------------------16--------------------*]
[*--------------------14--------------------------17----------------*]
[-----------------------------------------------------19--15~~~~~~~~~]
[--------------------------------------------------------------------]

[--Scrape--]                     [--Scrape--]
[--------15\--12_15_12------------------12---1314151617181920212223--]
[------15--sl---h--p---12-------------12-----------------------------]
[*---16--------------------12-------12------------------------------*]
[*-17--------------------------14-14--------------------------------*]
[--------------------------------------------------------------------]
[--------------------------------------------------------------------]

  [End Solo 1]
[--24fb~~~~~~]
[------------]
[*----------*]
[*----------*]
[------------]
[------------]


Riff C.2 [Palm mute on 6th string]
[--------------------------------------------------]
[--------------------------------------------------]
[*-----------------------------------4--3---------*]GTRS I
[*-----------------------------------2--1--3------*]  & II
[------------------------------------2--1--3-------]
[--0000000000000000-3333333333333333-^--^--1-------]
   |______________| |______________|       ^
        --16--           --16--

Play C.1 three times
Play C.2 one time


Riff D.1
[-------------------------------------------------------]
[--6-----6~-------5-----5~----6-----6~--------5-----8~--]
[*---777---777777---777---777---777----777777---777----*]GTRS I
[*-----------------------------------------------------*]  & II
[-------------------------------------------------------]
[-------------------------------------------------------]
     ...   ......   ...   ...   ...    ......   ...


Riff D.2
[---------------------------------------------------------]
[--6-----6~-------5-----5~----6-----6~--------5-----8~----]
[*---777---777777---777---777---777----777777---777------*]GTR I
[*-------------------------------------------------------*]
[---------------------------------------------------------]
[---------------------------------------------------------]
     ...   ......   ...   ...   ...    ......   ...

[---------------------------------------------------------]
[---------------------------------------------------------]
[*-3-----3~--------2-----2~-----3-----3~--------2-----5~-*]
[*---555----555555---555----555---555----555555---555----*]GTR II
[---------------------------------------------------------]
[---------------------------------------------------------]
     ...   ......    ...    ...   ...    ......   ...


Play Riff D.1 two times
Play Riff D.2 two times


Riff E
[--------------------------------------------]
[--------------------------------------------]
[*------------------------------------------*]GTR I
[*------7--------5~----8-7---7~-8-7---10----*]
[--0000---000000----00-----6--------8----8---]
[--------------------------------------------]
   ....   ......    ..

[--------------------------------------------]
[--------------------------------------------]
[*------9--------7~-------------------------*]GTR II
[*---------------------8-7---7~-8-7---10----*]
[--0000---000000----00-----6--------8----8---]
[--------------------------------------------]
   ....   ......

[--------------------------------------------]
[--------------------------------------------]
[*------------------------------------------*]GTR I
[*------7--------4/5-5~-8-7---7~-8-7---10---*]
[--0000---000000------------6--------8----8--]
[--------------------------------------------]
   ....   ......

[--------------------------------------------]
[--------------------------------------------]
[*------9--------6/7------------------------*]GTR II
[*-------------------5~-8-7---7~-8-7---10---*]
[--0000---000000------------6--------8----8--]
[--------------------------------------------]
   ....   ......


Play Riff E two times


Riff F [w/Solo 2 6 times]
[-----------------------------------------]
[-----------------------------------------]
[*---------------------------------------*]GTRS I
[*-6------5------2--4------3------3------*]  & II
[--6------5------2--2-2222-1-1111-3-------]
[--4-4444-3-3333-0--^------^------1-1111--]
   ^ .... ^ .... ^    ....   .... ^ ....


[Solo 2: Chuck Schuldiner] [Heavy Vibrattos]          [--Rake--]
[---____________________------------------------------||-----12------]
[--|     --Gradual--    |--5~~~~~~~~~~~~~~~~-5~~~~~~~~||--10----13---]
[*-91/2b~~~~r1/2br1/2b~~-------------------[a.h.]-----||9-----------*]
[*------------------------------------------------------------------*]
[--------------------------------------------------------------------]
[--------------------------------------------------------------------]

[--------------------------------------------------------------------]
[--12_13_12-10-12_10-------------------------------------------------]
[*---h--p--------p---9---------------------------------12/14-1414---*]
[*---------------------10----------14--14/15-171717~~~~-------------*]
[-------------------------12---------------------------10/12-1212----]
[----------------------------12~~~~12--12/13-151515~~~~--------------]

[--------------------------------------------------------------------]
[--------------------------------------------------------------------]
[*-14/16-1616-16/17-17\16-16\14-14\12-12\10-10\9-9~~~~14--16--17~~~\*]
[*------------------------------------------------------------------*]
[--12/14-1414-14/15-15\14-14\12-12\10-10-\8-8-\7-7~~~~12--14--15~~~\-]
[-----------------------------------------------------------------sl-]

[--------------------------------------------------------------------]
[-------------------10--12--13--12-10--------------------------------]
[*-7--9--10~~~~9~~~~------------------10~~10/12-10--9--10~~~~9/10---*]
[*------------------------------------------------------------------*]
[--------------------------------------------------------------------]
[--------------------------------------------------------------------]

[End Solo 2]
[----------]
[----------]
[*-10~~\--*]
[*-----sl-*]
[----------]
[----------]


Riff G.1
[-------------------------]
[-------------------------]
[*-----------------------*]GTRS I
[*-----1-0---3-2---2-1---*]  & II
[--000-----1-----3-----2--]
[-------------------------]
   ...


Riff G.2
[-------------------------]
[-------------------------]
[*-----------------------*]GTR I
[*-----1-0---3-2---2-1---*]
[--000-----1-----3-----2--]
[-------------------------]
   ...

[-------------------------]
[-------------------------]
[*-----3-2---5-4---4-3---*]GTR II
[*---------3-----5-----4-*]
[--000--------------------]
[-------------------------]
   ...


Play Riff G.1 five times
Play Riff G.2 five times


[Solo 3: Andy LaRoche]
[--------------------------------------------------------------------]
[--12-10--------------------10-12-10--------------------10-13-12-10--]
[*-------12-11-9----9-11-12----------12-11-9----9-11-12-------------*]
[*---------------12--------------------------12---------------------*]
[--------------------------------------------------------------------]
[--------------------------------------------------------------------]

[--------------------------------------------------------------------]
[--------------------12-13-12-------------------12-13-15-13-12-------]
[*-12-10----10-12-14----------14-12----10-12-14----------------14---*]
[*-------14-------------------------14------------------------------*]
[--------------------------------------------------------------------]
[--------------------------------------------------------------------]

[-----------------------------------------------------16fb--r--------]
[-----------------13-15-13----------------------13-15---------*17~~~~]
[*-12----12-14-16----------16-14-12----12-14-16---------------------*]
[*----16----------------------------16------------------------------*]
[--------------------------------------------------------------------]
[--------------------------------------------------------------------]

[--------------12----------------------------------------------------]
[--------121315--151312----------------------------------------------]
[*-101214--------------151412----------------------1214161412-------*]
[*---------------------------151412----------121415----------151412-*]
[----------------------------------1514121415------------------------]
[--------------------------------------------------------------------]

[--------------------------------------------------------------------]
[--------------151719-201/2b~~~~------------20-19_20_19-17-----------]
[*-------161719-----.[a.h.]-------------16-------h--p------19-17-19-*]
[*-141517---------------------------16------------------------------*]
[-------------------------------14-----------------------------------]
[--------------------------------------------------------------------]

                        [End Solo 3]
[--------15171917192019202224fb~~~~]
[--171920--------------------------]
[*--------------------------------*]
[*--------------------------------*]
[----------------------------------]
[----------------------------------]

 ________________________
[* = Exaggerated Vibratto]
[________________________]


Repeat
------
Play Riff B   three times
Play C.1      three times
Play C.2      one time
Play Riff D.1 two times
Play Riff D.2 two times
Play Riff E   two times
End!

3. Jealousy

Riff A
|-------------------------------------------------|
|-------------------------------------------------|
|-----------------------------------------------6-|Gtr
|-8-7---7-6-----7---8---7-----7-6---8---6---7-----| I
|-----8-----7-5---5---5---7-8-----7---4---4---4---|
|-------------------------------------------------|
|                                                 |
|-------------------------------------------------|
|-------------------------------------------------|
|-------------------------------------------------|Gtr
|-----------------------------------------------4-|II
|-6-5---5-4-----5---6---5-----5-4---6---4---5-----|
|-----6-----5-3---3---3---5-6-----5---2---2---2---|

Play Riff A 4 times

Riff B
|-----------------------------------------------|
|-----------------------------------------------|
|-----------8---7h8p7---------------8---7h8p7---|Gtr
|-6---6-8-9-----------9---6---6-8-9-----------9-| I
|-----------------------------------------------|
|-----------------------------------------------|
|                                               |
|-----------------------------------------------|
|-----------------------------------------------|
|-----------------------------------------------|Gtr
|-----------6---5h6p5---------------6---5h6p5---|II
|-4---4-6-7-----------7---4---4-6-7-----------7-|
|-----------------------------------------------|

Continuation of Riff B
|-----------------------------------------------|
|-----------------------------------------------|
|-----------7---6h7p6---------------7---6h7p6---|Gtr
|-5---5-7-8-----------8---5---5-7-8-----------8-| I
|-----------------------------------------------|
|-----------------------------------------------|
|                                               |
|-----------------------------------------------|
|-----------------------------------------------|
|-----------------------------------------------|Gtr
|-----------5---4h5p4---------------5---4h5p4---|II
|-3---3-5-6-----------6---3---3-5-6-----------6-|
|-----------------------------------------------|

Play Riff B 4 times

Riff C
|--------------------------------------------------------|
|-----------------------------------3--------------3-----|
|-----------------------------2-4-5---5-4----2-4-5---5-4-|Gtr
|-------5-------------5----------------------------------| I
|-5-7-8---8-7---5-7-8---8-7------------------------------|
|--------------------------------------------------------|
|                                                        |
|--------------------------------------------------------|
|--------------------------------------------------------|
|--------------------------------------------------------|Gtr
|-------5-------------5-------------5--------------5-----|II
|-5-7-8---8-7---5-7-8---8-7---5-7-8----8-7---5-7-8---8-7-|
|--------------------------------------------------------|

Continuation of Riff C
|---------------------------------------------------|
|-3-3h5-5h6-6---3h5-5h6-6---3-3h5-5h6-6---3h5-5h6-6-|
|---------------------------------------------------|Gtr
|---------------------------------------------------| I
|---------------------------------------------------|
|---------------------------------------------------|
|                                                   |
|---------------------------------------------------|
|---------------------------------------------------|
|---------------------------------------------------|Gtr
|-5-5h7-7h8-8---5h7-7h8-8---5-5/7-7/8-8---5/7-7/8-8-|II
|---------------------------------------------------|
|---------------------------------------------------|

Play Riff C twice

Riff D
|----------------------------------|--------------------------|----------|
|----------------------------------|--------------------------|----------|
|----------------------------------|--------------------------|----------|Gtr
|-4---3----------------------------|-4---3--------------------|----------|I&II
|---5---4--------------------------|---5---4------------------|----------|
|---------333333332222222222222222-|---------3333333366666666-|-22222222-|
          ........................           ................   ........

Play Riff D 4 times, on the 4th time don't play the last bar.

Riff E
|-------------------------------------------------|
|-------------------------------------------------|
|-------------------------------------------------|Gtr
|-------------------------------------------------|I&II
|-----7-----6-----7-----6-----7-----6-----7-----6-|
|-444---444---444---444---444---444---444---444---|
  ...   ...   ...   ...   ...   ...   ...   ...

Continuation of Riff E
|-----------------------------------------------------|
|-----------------------------------------------------|
|-----------------------------------------------------|Gtr
|-----------------------------------------------------|I&II
|-----7-----6~-----7-----6~-----7-----6~-----7-----6~-|
|-555---555----555---555----555---555----555---555----|
  ...   ...    ...   ...    ...   ...    ...   ...

Continuation of Riff E
|------------------------------------------------------------------|
|------------------------------------------------------------------|
|------------------------------------------------------------------|Gtr
|------------------------------------------------------------------|I&II
|-----7-------6-------7-------6-------7-------6-------7-------6----|
|-444---44444---44444---44444---44444---44444---44444---44444---44-|
  ...   .....   .....   .....   .....   .....   .....   .....   ..

Continuation of Riff E
|----------------------------------------------------------|
|----------------------------------------------------------|
|----------------------------------------------------------|Gtr
|----------------------------------------------------------|I&II
|-----7-------6~----7-------6~----7-------6~----7-------6~-|
|-555---55555---555---55555---555---55555---555---55555----|
  ...   .....   ...   .....   ...   .....   ...   .....

Play Riff E once

Riff F(Played during Chuck's solo)
|----------------------------------------------------|
|----------------------------------------------------|
|----------------------------------------------------|Gtr
|-------5-----4-----7----------2-----4-----7-7---7-7-|II
|-2-----3-----2-----5-----2----3-----2-----5-5---5-5-|
|-0-----------------------0--------------------------|

Play Riff F once

Riff G(Played during Andy's solo)
|--------------------------------------------------|
|--------------------------------------------------|
|--------------------------------------------------|Gtr
|--------------------------------------------------| I
|-------------333333333333222222222222555555555555-|
|-000000000000-------------------------------------|
................................................

Play Riff G 4 times

Riff H(Playedd during Andy's solo)
|------------------------------------------------------------------|
|------------------------------------------------------------------|
|------------------------------------------------------------------|Gtr
|-9-----9-----9-----9-----9---9---8-----8-----8-----8-----8---8----| I
|-7-77777-77777-77777-77777-777-776-66666-66666-66666-66666-666-66-|
|------------------------------------------------------------------|
    ....  ....  ....  ....  ..  ..  ....  ....  ....  ....  ..  ..

Play Riff H twice

Now, go back and:
Riff A 4 times
Riff B 4 times
Riff C twice
Riff D times, on the 4 time only play the first bar, then end with:

|-----------------------------------|
|-----------------------------------|
|-----------------------------------|Gtr
|-4---3---------------------4---3---|I&II
|---5---4---5-----8-----4-----5---4-|
|-----------3-----6-----2-----------|

END

4.) Trapped In A Corner

Riff A
|-----------------------------------------|
|-----------------------------------------|
|-----------------------------------------|Gtr
|----15-16----16~----15-16----15-16-15----| I
|-13-------13-----13-------13----------16-|
|-----------------------------------------|
| .        .      .        .          .   |
|                                         |
|-----------------------------------------|
|-----------------------------------------|
|-----------------------------------------|Gtr
|---10-11----10~----10-11----10-11-10-----|II
|-8--------8------8--------8----------11--|
|-----------------------------------------|
  .        .      .        .          .

Continuation of Riff A
|-----------------------------------------|
|-----------------------------------------|
|-----------------------------------------|Gtr
|----18-19----18~----18-19----18-19-18----| I
|-16-------16-----16-------16----------19-|
|-----------------------------------------|
| .        .      .        .           .  |
|                                         |
|-----------------------------------------|
|-----------------------------------------|
|-----------------------------------------|Gtr
|----13-14----13~----13-14----13-14-13----|II
|-11-------11-----11-------11----------14-|
|-----------------------------------------|
  .        .      .        .           .

Continuation of Riff A
|-------------------------------------------|
|-------------------------------------------|
|-------------------------------------------|Gtr
|----17-18----17-18----17-18----17-18----17-| I
|-15-------15-------15-------15-------15----|
|-------------------------------------------|
| .        .        .        .        .     |
|                                           |
|-------------------------------------------|
|-------------------------------------------|
|-------------------------------------------|Gtr
|----12-13----12-13----12-13----12-13----12-|II
|-10-------10-------10-------10-------10----|
|-------------------------------------------|
  .        .        .        .        .

Continuation of Riff A
|-------------------------------------------|
|-------------------------------------------|
|-------------------------------------------|Gtr
|----20-21----20-21----20-21----20-21----20-| I
|-18-------18-------18-------18-------18----|
|-------------------------------------------|
| .        .        .        .        .     |
|                                           |
|-------------------------------------------|
|-------------------------------------------|
|-------------------------------------------|Gtr
|---15-16----15-16----15-16-----15-16----15-|II
|-13-------13-------13-------13-------13----|
|-------------------------------------------|
   .        .        .        .        .

Play Riff A twice

Riff B
|-----------------------------------------------------|
|-10---------10-------------10---------10-------------|
|----9---9------9---9---9------9---9------9---9---9---|Gtr
|------7----------7---7---7------7----------7---7---7-| I
|-----------------------------------------------------|
|-----------------------------------------------------|
|                                                     |
|-----------------------------------------------------|
|-----------------------------------------------------|
|(2)-----------------------(2)------------------------|Gtr
|(2)-----------------------(2)------------------------|II
|(0)-----------------------(0)------------------------|
|-----------------------------------------------------|

continuation of Riff B
|------------------------------------------------------|
|-13---------13---------------8----------8-------------|
|---12--12-----12--12--12-------7---7------7---7---7---|Gtr
|-----10---------10--10--10-------5---5------5---5---5-| I
|------------------------------------------------------|
|------------------------------------------------------|
|                                                      |
|------------------------------------------------------|
|------------------------------------------------------|
|(5)---------------------------------------------------|Gtr
|(5)-------------------------(5)-----------------------|II
|(3)-------------------------(5)-----------------------|
|----------------------------(3)-----------------------|

Play Riff B 3 times, on the 3rd time, both guitars play the the first bar.

Riff C
|-------------------------------------------------|
|-------------------------------------------------|
|-------------------------------------------------|Gtr
|-------------------------------------------------|I&II
|-1-----4-----1-----4-----0-----3-----0-----3-----|
|---222---222---222---222---111---111---111---111-|
    ...   ...   ...   ...   ...   ...   ...   ...

Play Riff C twice

Riff D
|-------------------------------------------------|
|-------------------------------------------------|
|-------------------------------------------------|Gtr
|-------------------------------2-----------3-----|I&II
|-0-000-3-000-2-000-5-000-3-000---000-5-000---000-|
|-------------------------------------------------|
    ...   ...   ...   ...   ...   ...   ...   ...

Play Riff D twice
Play Riff C twice

Riff E
|--------------------------------------------------|
|--------------------------------------------------|
|--------------------------------------------------|Gtr
|-------5-----4-----7-----5-----9-----7-----10-----|I&II
|-0-000-3-000-2-000-5-000-3-000-7-000-5-000-8--000-|
|--------------------------------------------------|
    ...   ...   ...   ...   ...   ...   ...    ...

Play Riff E twice

Riff F
|--------------------|---------------------------|
|--------------------|--------------------10-----|
|--------------------|--------------9-7-9----9---|Gtr
|-------7h9h10p9-9~--|-------7h9h10------------7-| I
|-0--0---------------|-0--0----------------------|
|--------------------|---------------------------|
| .  .                 .  .                      |
|--------------------|---------------------------|
|--------------------|---------------------------|
|-2--2---------------|-2--2----------------------|Gtr
|-2--2---------------|-2--2----------------------|II
|-0--0---------------|-0--0----------------------|
|--------------------|---------------------------|
  .  .                 .  .

Play Riff F twice

Riff G
|--------------------|---------------------------|
|--------------------|--------------------10-----|
|--------------------|--------------9-7-9----9---|Gtr
|-------7h9h10p9-9~--|-------7h9h10------------7-|I&II
|-0--0---------------|-0--0----------------------|
|--------------------|---------------------------|
  .  .                 .  .

Play riff G 3 times

Riff H
|----------------|----------------------|
|----------------|----------------------|
|-----------3----|-----------3----------|Gtr
|-1------------2-|-1------------------3-|I&II
|----0-0-0-----0-|----0-0-0-----0--0--1-|
|----------------|----------------------|

Continuation of Riff H
|----------------|----------------------|
|----------------|----------------------|
|-----------3----|-----------3----------|Gtr
|-1------------2-|-1------------------2-|I&II
|----0-0-0-----0-|----0-0-0-----0--1--0-|
|----------------|----------------------|

Play Riff H 3 times.

SOLO(Andy LaRocque)
|-----------------------------------------------------|
|------------13---14----------------------------------|
|--13---14-------------13-----------------------------|Gtr
|--------------------------15---14--14~---------------|II
|------------------------------------------4--3-------|
|------------------------------------------------4--1-|

|-------17fb~~---16-----15--12~-|
|-------------------------------|
|-15~---------------------------|Gtr
|-------------------------------|II
|-------------------------------|
|-------------------------------|

Very fast tremolo picking
|-15-16-13----------------------------------13-15-|
|----------15-13-15-13----------13-15-13-15-------|
|----------------------14-15-16-------------------|Gtr
|-------------------------------------------------|II
|-------------------------------------------------|
|-------------------------------------------------|

Very fast tremolo picking
|------------------------------------------|
|-12-13-12-13-15-13-15--17-15-17-18-17-19~-|
|------------------------------------------|Gtr
|------------------------------------------|II
|------------------------------------------|
|------------------------------------------|

|-------------------------------------14--16--17-|
|-------------13--14--16--14--16--18-------------|
|-12--14--15-------------------------------------|Gtr
|------------------------------------------------|II
|------------------------------------------------|
|------------------------------------------------|

|-14--16--17/-20--22--20--19----------------------|
|-----------------------------22--20--22--20------|
|---------------------------------------------19~-|Gtr
|-------------------------------------------------|II
|-------------------------------------------------|
|-------------------------------------------------|

 Very fast tremolo picking
|------------------------------|
|-13~-15-16-15-13-15-13-11-13~-|
|------------------------------|Gtr
|----Play this bar 3 times-----|II
|------------------------------|
|------------------------------|

       Reverse arpeggios
|------22p18-----18h22p18------18h22p18-----18h22p18------|
|-----------20-----------20------------20-----------20----|
|-15~---------19-----------19------------19-----------19~-|Gtr
|---------------------------------------------------------|II
|---------------------------------------------------------|
|---------------------------------------------------------|

|-17bh---15~---17bh---15~----------------------------------------|
|------------------------------10~--11--10h11p10------10--11--10-|
|-------------------------------------------------12-------------|Gtr
|----------------------------------------------------------------|II
|----------------------------------------------------------------|
|----------------------------------------------------------------|

|-13--12--15--13--17--15--15--13--18--17h18p17--15--17--18--17~-|
|---------------------------------------------------------------|
|---------------------------------------------------------------|Gtr
|---------------------------------------------------------------|II
|---------------------------------------------------------------|
|---------------------------------------------------------------|

|-------------------------------|
|-17~~~~-----15---14------------|
|----------------------15---14~-|Gtr
|-------------------------------|II
|-------------------------------|
|-------------------------------|

|-15--17--15--12--10h12p10-------------------------------------------------|
|--------------------------14--10--11--10----------------------------------|
|-----------------------------------------12~--12--11--12----11--12--12----|Gtr
|---------------------------------------------------------9-------------12-|II
|--------------------------------------------------------------------------|
|--------------------------------------------------------------------------|

|------------------------15~---17~---17bf~~---15------15----------|
|-9--11--12--10--11--12---------------------------18------15--15~-|
|-----------------------------------------------------------------|Gtr
|-----------------------------------------------------------------|II
|-----------------------------------------------------------------|
|-----------------------------------------------------------------|

|----------------------------------------------------------------------|
|-13------13-----------------------------------------------------------|
|-----15-----------12--------------------------------------------------|Gtr
|--------------15------12--15------12----------12--13------12--12------|II
|--------------------------------------13--15----------15----------13~-|
|----------------------------------------------------------------------|

                          sweep
|----------12-15~--------------12----------------|
|----13-15-------------------13--13--------15hb~-|
|-14-----------------------14------14---14-------|Gtr
|------------------------14----------------------|II
|-------------------12h15------------------------|
|------------------------------------------------|

Riff I(Played during Andy's solo)
|---------------------------------------------------------------------------|
|---------------------------------------------------------------------------|
|---------------------------------------------------------------------------|Gtr
|-----7----8------7----8------5----7--------7----8------7----8------8----10~| I
|0000---00---0000---00---0000---00---000000---00---0000---00---0000---00----|
|---------------------------------------------------------------------------|
 ....   ..   ....   ..   ....   ..   ......   ..   ....   ..   ....   ..

Play Riff I twice

Riff J (Played during Andy's solo))
|---------------------------------------------------------------------------|
|---------------------------------------------------------------------------|
|------2----3------2----3------0----2--------2----3------2----3------3----5~|Gtr
|-1111---11---1111---11---1111---11---111111---11---1111---11---1111---11---|II
|---------------------------------------------------------------------------|
|---------------------------------------------------------------------------|
  ....   ..   ....   ..   ....   ..   ......   ..   ....   ..   ....   ..

Play Riff J twice
Play Riff I twice
Play Riff J twice

SOLO(Chuck Schuldiner)
Note: the tapped part of the solo should be 100% correct, i watched
how Chuck played it in the Live in L.A dvd, and unless he didn't
change anything, it should all be there.
|------------------------------------------------------------------|
|-t17p10h13p10-t18p10h13p10-t17p10h13p10-t19p10h13p10-t15p10h13p10-|
|------------------------------------------------------------------|Gtr
|------------------------------------------------------------------| I
|------------------------------------------------------------------|
|------------------------------------------------------------------|

|------------------------------------------------------------------|
|-t17p10h13p10-t18p10h13p10-t17p10h13p10-t18p10h13p10-t20p10h13p10-|
|------------------------------------------------------------------|Gtr
|------------------------------------------------------------------| I
|------------------------------------------------------------------|
|------------------------------------------------------------------|

|------------------------------------------------------------------|
|-t17p10h13p10-t15p10h13p10-t20p10h13p10-t23p10h13p10-t24p10h13p10-|
|------------------------------------------------------------------|Gtr
|------------------------------------------------------------------| I
|------------------------------------------------------------------|
|------------------------------------------------------------------|

|------------------------------------------------------------------|
|-t24p10h13p10-t20p10h13p10-t21p10h13p10-t23p10h13p10-t24p10h13p10-|
|------------------------------------------------------------------|Gtr
|------------------------------------------------------------------| I
|------------------------------------------------------------------|
|------------------------------------------------------------------|

|------------------------------|
|-t24p10h13p10-t23p10h13p10~~~-|
|------------------------------|Gtr
|------------------------------| I
|------------------------------|
|------------------------------|


|------------------------------------|
|-12~~~~~~~~----13---12---10---------|
|------------------------------10~~~-|Gtr
|------------------------------------| I
|------------------------------------|
|------------------------------------|

  Very fast tremolo picking
|-------------------17----------------------------------17-------------------|
|----------15-17-18----18-17-15----------------15-17-18----18-17-15----------|
|-14-16-17----------------------17-16-14-16-17---------------------17-16-14~-|Gt
|----------------------------------------------------------------------------| I
|----------------------------------------------------------------------------|
|----------------------------------------------------------------------------|

 Very fast tremolo picking
|-19-20----------------------------------------------|
|-------17-18-17-15-17-15-17-15-12-13-10-12-10-12-10-|
|----------------------------------------------------|Gtr
|----------------------------------------------------| I
|----------------------------------------------------|
|----------------------------------------------------|

 reverse arpeggio
|------------------------------------------------------------------|
|-----------------------15--17--18--17~----15-/-17“--12“--15“--13“-|
|-10p9-------14--16--17--------------------------------------------|Gtr
|-----10-----------------------------------------------------------| I
|-------12~--------------------------------------------------------|
|------------------------------------------------------------------|

Very fast tremolo picking                        p.h.
|-12-13-12-10-12-10----10-------------------------12~~-|
|-------------------13----13-12-10-12-10---------------|
|----------------------------------------12-10-9~------|Gtr
|------------------------------------------------------| I
|------------------------------------------------------|
|------------------------------------------------------|

Riff K(Played during Chuck's solo)
|--------------------------------------------------|
|--------------------------------------------------|
|--------------------------------------------------|Gtr
|-------------333333333333------------222222222222-|II
|-000000000000------------333333333333-------------|
|--------------------------------------------------|
  ................................................

Continuation of Riff K
|--------------------------------------------------|
|--------------------------------------------------|
|--------------------------------------------------|Gtr
|-------------333333333333---000222000---000-------|II
|-000000000000------------333---------333---333222-|
|--------------------------------------------------|
  ................................................

Play Riff K twice

Now, go back and
Play Riff B 3 times
Play Riff C twice
Play Riff D twice
Play Riff C twice
Play Riff E twice

END

5.) Nothing Is Everything

Riff A
|----------|--------------|----------|----------------|
|----------|--------------|----------|----------------|
|----------|--------------|----------|----------------|Gtr
|----------|--------------|----------|----------------| I
|-6-----6~-|-6-----6-0----|-6-----5~-|-6-----6-----5~-|
|---6-5----|---6-5---5-4~-|---6-5----|---6-5---5-4----|
    . .        . .            . .        . .
|----------|--------------|----------|----------------|
|----------|--------------|----------|----------------|
|----------|--------------|-3-----3~-|-3-----3-----2~-|Gtr
|----------|--------------|---3-2----|---3-2---2-1----|II
|-6-----6~-|-6-----6------|----------|----------------|
|---6-5----|---6-5---5-4~-|----------|----------------|
    . .        . .            . .        . .

Play Riff A twice

Riff B
|----------------------------------------------|
|----------------------------------------------|
|-4-----3-----3-----3-----2-----2--------------|Gtr
|-------------------------------------1-----1~-|
|---1-1---1-1---1-1---1-1---0-0---0-0---1-0----|
|----------------------------------------------|
    . .   . .   . .   . .   . .   . .   . .

Continuation of Riff B
|-------------------------------------------------|
|-------------------------------------------------|
|-4-----3-----3-----3-----2-----2-----------------|Gtr
|-------------------------------------1-----------|
|---1-1---1-1---1-1---1-1---0-0---0-0---0-----4---|
|-----------------------------------------4-3---5-|
    . .   . .   . .   . .   . .   . .   . . .

Play Riff B 5 times

Riff C
|---------5-7-8~--7~--5~------------|-----5-----5-7~--5~----5h7p5-----------|
|---5-7-8-----------------8--7-5----|-7-8---7-8-----------8-------8-7-5---5~|
|-8------------------------------8~-|-----------------------------------8---|Gtr
|-----------------------------------|---------------------------------------| I
|-----------------------------------|---------------------------------------|
|-----------------------------------|---------------------------------------|
|
| guitar 2
|---------5-7-8~--8~--8~--7--5------|-----5-----5-7~--7~--7-5h7p5-----------|
|---5-7-8----------------------8-7~-|-7-8---7-8-------------------8-7-5---5~|
|-8---------------------------------|-----------------------------------8---|Gtr
|-----------------------------------|---------------------------------------|II
|-----------------------------------|---------------------------------------|
|-----------------------------------|---------------------------------------|

Play Riff C 3 times

Riff D
|---------------------------------------------------------------|
|-8--------------10-------------7--------------11-------------8-|
|-7--------------9--------------6--------------10-------------7-|Gtr
|-5--------------7--------------4--------------8--------------5-|
|---000000000000---000000000000---000000000000---444444444444---|
|---------------------------------------------------------------|
    ............   ............   ............   ............

Continuation of Riff D
|-----------------------------------------------|--------------|
|--------------10-------------7--------------11-|--------------|
|--------------9--------------6--------------10-|--------------|Gtr
|--------------7--------------4--------------8--|--------------|
|-444444444444---444444444444---444444444444----|-000000000000-|
|-----------------------------------------------|--------------|
  ............   ............   ............      ............

Play Riff D twice, on the 2nd time, don’t play the last bar.

Riff E(played during Chuck's solo)
|----------------------------------------------------------|
|----------------------------------------------------------|
|------------33--------------------------44----------------|Gtr
|-11111111111--11111111111111122222222222--222222222222222-|
|----------------------------------------------------------|
|----------------------------------------------------------|
  ...........  ..........................  ...............
                                 ____________________________
                                |Ending 1
|------------------------------|------------------------------|
|------------------------------|------------------------------|
|------------33----------------|------------------------------|Gtr
|-11111111111--111111111111111-|------------------------------|
|------------------------------|-------------2222-------------|
|------------------------------|-000000000000----000000000000-|
  ...........  ...............   ............................
 _______________________________
|Ending 2
|------------------------------|
|------------------------------|
|-------------4----------------|Gtr
|-2-----------4---2------------|
|-2-----------2---2------------|
|-0---------------0------------|

Play Riff E twice

Now, go back and
Play Riff B 4 times
Play Riff C 3 times

Riff F
|-------------------------|-------------------------|
|-------------------------|-------------------------|
|-4-----4-----4-----------|-4-----4-----------------|Gtr
|---5-----5-----5---5-4---|---5-----5---5-4---4-5-7-| I
|-----7-----7-----7-----5-|-----7-----7-----5-------|
|-------------------------|-------------------------|

|-------------------------|-------------------------|
|-------------------------|-------------------------|
|-------------------------|-------------------------|Gtr
|-9-9-9-9-9-9-5-5-5-4-4-4-|-------------7-7-7-------|II
|-7-7-7-7-7-7-3-3-3-2-2-2-|-5-5-5-5-5-5-5-5-5-ph----|
|-------------------------|-3-3-3-3-3-3-------3~----|
  . . . . . . . . . . . .   . . . . . . . . .

Play Riff F 4 times

Let this fade out
|-------|
|-------|
|-------|
|-4-5-7-|
|-------|
|-------|

END

6.) Mentally Blind

Riff A
|----------------------|----------------------|
|----------------------|----------------------|
|----------------------|----------------------|Gtr
|-------------------3~-|-------------------3~-|I&II
|---------------3-2----|---------------3-2----|
|-0-0-0-0-0-0-3--------|-0-0-0-0-0-0-3--------|
  . . . . . . . . .      . . . . . . . . .

continuation of Riff A
|----------------------|-------------------------|
|----------------------|-------------------------|
|----------------------|-------------------------|Gtr
|-------------5-----3~-|-------------5-----3p2---|I&II
|---------------5------|---------------5-------3-|
|-4-4-4-4-4-4-----4----|-4-4-4-4-4-4-----4-------|
  . . . . . . . . .        . . . . . . . .

Play Riff A 3 times

Riff B
|--------------------|--------------------|
|-----------5--------|-------5------------|
|-2-----------5-2-5~-|---------5-2-5~--4~-|Gtr
|-2------------------|--------------------|I&II
|-0---0-0-0----------|-0-0-0--------------|
|--------------------|--------------------|
      . . .            . . .

continuation of Riff B
|--------------------|-----------------------------|
|-----------5--------|-------5---------------------|
|-2-----------5-2-5~-|---------5--2-5-4--------4---|Gtr
|-2------------------|-------------------5---3---5-|I&II
|-0---0-0-0----------|-0-0-0-----------------------|
|--------------------|-----------------------------|
      . . .             . . .

Play Riff B twice

Riff C
|-------------------------------------------------------------|
|-------------------------------------------------------------|
|----------------------------------------------------2--------|Gtr
|-3------2------2------3------5-------3------5----------------|I&II
|--000000-000000-111111-111111--222222-222222--333333--333333-|
|-------------------------------------------------------------|
   ...... ...... ...... ......  ...... ......  ......  ......

Play Riff C 3 times.

Fill A
|---|
|---|
|-9-|Gtr
|-9-|I&II
|-7-|
|-0-|

Play Fill A once

Riff D
|------12-------13-15--------12-------13-15----17~----|
|---------12-13-------15~-------12-13-------15--------|
|-----------------------------------------------------|Gtr
|-----------------------------------------------------| I
|-----------------------------------------------------|
|-----------------------------------------------------|
|                                                     |
|-----------------------------------------------------|
|-----------------------------------------------------|
|-9---------------------9--------------------------10-|Gtr
|-9---------------------9--------------------------10-|II
|-7---------------------7--------------------------8--|
|-0---------------------0-----------------------------|

Play Riff D twice

SOLO(Chuck Schuldiner)
|--------------------------------------------------------|
|------------15-17-15------------------------------------|
|------16-17----------17-16-17-16----16"-17"-16"-16~-16~-|Gtr
|-14~~----------------------------14---------------------|  I
|--------------------------------------------------------|
|--------------------------------------------------------|

|---------------------------------|
|---------------------------------|
|-17--16~-------------------------|Gtr
|-----------19-19-19--18--15--14~-| I
|---------------------------------|
|---------------------------------|

 Very fast tremolo picking
|-------------------------------------------------------------------|
|-------------------------------------------------------------------|
|-16-16-16-17-16-14-16-17-16------------------------------------p.h.|Gtr
|----------------------------19-18-15-19-18-15--14-18-14--15-14-12~-| I
|-------------------------------------------------------------------|
|-------------------------------------------------------------------|


|----------------------------------------------------------p.h.|
|-15~----------------------------------------17----17--19--19~-|
|--------------------------16-17-16-14----------16-------------|Gtr
|------15~--14~------14-14-------------18----------------------| I
|--------------------------------------------------------------|
|-----------------12-------------------------------------------|

|-17----20----------------------------------|
|----17----20--17--16-----16----------------|
|----------------------17----17--14--16--14-|Gtr
|-------------------------------------------| I
|-------------------------------------------|
|------------------------------------------|

 Very fast tremolo picking
|-------------------------------------------------------------------|
|-------------------------------------------------------------------|
|-------------------------------------------------14-16-17-16-------|Gtr
|----------------------------14-15-14-15-17-19-17-------------17----| I
|----------------15-17-15-17-------------------------------------19-|
|-12-15-17-15-17----------------------------------------------------|

 Very fast tremolo picking
|---------------------------------------------------------------------------|
|--------------------------------17-13-15--17-19-15--17-19-20--17-19-20-22~-|
|-16-17-16-14-16-17--19-16-17-19--------------------------------------------|Gtr
|---------------------------------------------------------------------------| I
|---------------------------------------------------------------------------|
|---------------------------------------------------------------------------|

|---------------p.h.-|
|-20~-20~-22fb~-24~~-|
|--------------------|Gtr
|--------------------| I
|--------------------|
|--------------------|

Riff E(Played during Chuck's solo)
|--------------------|-------------------|
|--------------------|-------------------|
|-9----12------------|-9----12---------7-|Gtr
|-9----12----7----10-|-9----12----7----7-|II
|-7----10----7----10-|-7----10----7----5-|
|-0----------5----8--|-0----------5------|

Play Riff E twice

Riff F
|--------------------------------------------|
|--------------------------------------------|
|-------9----------11---------12----------14-|Gtr
|-------7----------9----------10----------12-|I&II
|-0-0-0------0-0-0------0-0-0-------0-0-0----|
|--------------------------------------------|
  . . .      . . .      . . .       . . .

Play Riff F twice

Riff G
|---------|
|---------|
|---------|Gtr
|-------7-|I&II
|-0-0-0---|
|---------|
  . . .

Play Riff G 16 times

Riff H
|--------------------------------------------------------------|
|-----------------------------------------------------------6~-|
|-------------2------5~------4~-------------2-------5~---------|Gtr
|-2222-2-2222---2222----2222----2222-2-2222----2222----2222----| I
|--------------------------------------------------------------|
|--------------------------------------------------------------|
| ....   ....   ....    ....    ....   ....    ....    ....    |
|                                                              |
|--------------------3~------4~---------------------3~------8~-|
|-------------5-----------------------------5~-----------------|
|------4-----------------------------4-------------------------|Gtr
|-2222---2222---2222----2222----2222---2222----2222----2222----|II
|--------------------------------------------------------------|
|--------------------------------------------------------------|
  ....   ....   ....    ....    ....   ....   ....   ....

Continuation of Riff H
|--------------------------------------------------------------|
|-----------------------------------------------------------4~-|
|-------------2------5~------4~-------------2-------5~---------|Gtr
|-2222-2-2222---2222----2222----2222-2-2222----2222----2222----| I
|--------------------------------------------------------------|
|--------------------------------------------------------------|
| ....   ....   ....    ....    ....   ....    ....    ....    |
|                                                              |
|--------------------3~------4~---------------------3~------7~-|
|-------------5-----------------------------5~-----------------|
|------4-----------------------------4-------------------------|Gtr
|-2222---2222---2222----2222----2222---2222----2222----2222----|II
|--------------------------------------------------------------|
|--------------------------------------------------------------|
  ....   ....   ....    ....    ....   ....   ....   ....

Continuation of Riff H
|--------------------------------------------------------------|
|-----------------------------------------------------------2~-|
|-------------2------5~------4~-------------2-------5~---------|Gtr
|-2222-2-2222---2222----2222----2222-2-2222----2222----2222----| I
|--------------------------------------------------------------|
|--------------------------------------------------------------|
| ....   ....   ....    ....    ....   ....    ....    ....    |
|                                                              |
|--------------------3~------4~---------------------3~------5~-|
|-------------5-----------------------------5~-----------------|
|------4-----------------------------4-------------------------|Gtr
|-2222---2222---2222----2222----2222---2222----2222----2222----|II
|--------------------------------------------------------------|
|--------------------------------------------------------------|
  ....   ....   ....    ....    ....   ....   ....   ....

Continuation of Riff H
|--------------------------------------------------------------|
|-----------------------------------------------------------6~-|
|-------------2------5~------4~-------------2-------5~---------|Gtr
|-2222-2-2222---2222----2222----2222-2-2222----2222----2222----| I
|--------------------------------------------------------------|
|--------------------------------------------------------------|
| ....   ....   ....    ....    ....   ....    ....    ....    |
|                                                              |
|--------------------3~------4~---------------------3~------7~-|
|-------------5-----------------------------5~-----------------|
|------4-----------------------------4-------------------------|Gtr
|-2222---2222---2222----2222----2222---2222----2222----2222----|II
|--------------------------------------------------------------|
|--------------------------------------------------------------|
  ....   ....   ....    ....    ....   ....   ....   ....

Play Riff H once

Now, go back and
play Riff A 3 times
Play Riff B twice
Play Riff C 4 times
Play Fill A once
Play Riff D four times

End With
|---------------------------|
|---------------------------|
|-------------2-------------|Gtr
|-2-----3-----0-----5-----2-| I
|-2-----3-----0-----5-----2-|
|-0-----1-----------3-----0-|
|                           |
|---------------------------|
|---------------------------|
|-9-----10----7-----12----9-|Gtr
|-9-----10----7-----12----9-|II
|-7-----8-----5-----10----7-|
|---------------------------|

7.) Individual Thought Patterns

Riff A
|--------------3--2-------|--------------------------|
|-------3-4~---------3~---|-------3-4~----3---3------|
|-0-1-3-------------------|-0-1-3-----------4-----3~-|Gtr
|-------------------------|--------------------------|I
|-------------------------|--------------------------|
|-------------------------|--------------------------|
| . . .                      . . .                   |
|                                                    |
|-------2-3~---7--6-------|-------2-3~----2---2------|
|---1-4--------------8~---|---1-4-----------4---4-3~-|
|-4-----------------------|-4------------------------|Gtr
|-------------------------|--------------------------|II
|-------------------------|--------------------------|
|-------------------------|--------------------------|
  . . .                      . . .

Play Riff A twice

Riff B
|-------------------------------------------------|
|-------------------------------------------------|
|-------------------------------------------------|Gtr
|-4------------------444----44----44------------4-|I&II
|---3333333333333333-----33----33----3333333333---|
|-------------------------------------------------|
    ................ ... .. .. .. .. ..........

continuation of Riff B
|---------------------------------------------|
|---------------------------------------------|
|---------------------------------------------|Gtr
|-----------------444----44----44----44444444-|I&II
|-333-333-3333333-----33----33----33----------|
|---------------------------------------------|
  ... ... ....... ... .. .. .. .. .. ........

continuation of Riff B
|-----------------------------------------------|
|-----------------------------------------------|
|-----------------------------------------------|Gtr
|-----------------------------------------------|I&II
|-5------------------555----55----55------------|
|---4444444444444444-----44----44----4444444444-|
    ................ ... .. .. .. .. ..........

continuation of Riff B           (end of Riff A)
|----------------------------------------------|
|----------------------------------------------|
|----------------------------------------------|Gtr
|----------------------------------------------| I
|-5-----------------555----55----55----5555555-|
|---444-444-4444444-----44----44----44---------|
|   ... ... ....... ... .. .. .. .. .. ....... |
|                                              |
|----------------------------------------------|
|----------------------------------------------|
|-2-----------------222----22----22----2222222-|Gtr
|---111-111-1111111-----11----11----11---------|II
|----------------------------------------------|
|----------------------------------------------|
    ... ... ......  ... .. .. .. .. .. .......

Play Riff B twice

Riff C
|-----------------------------------------------------|
|-----------------------------------------------------|
|-----------------------------------------------------|Gtr
|-4-----5-----7-----5-----4------5------7------5------|I&II
|-2-----3-----5-----3-----2-0000-3-0000-5-0000-3-0000-|
|---000---000---000---000-----------------------------|
    ...   ...   ...   ...   ....   ....   ....   ....

continuation of Riff C
|--------------------------------------------------|
|----------------------------------5~--------------|
|-4-----5-----7-----5--------------4~--------------|Gtr
|----------------------------------2~--------2-----|I&II
|---333---333---333---333---2--222----2--222---2-2-|
|---------------------------0--000----0--000-------|
    ...   ...   ...   ...   .  ...    .  ... . . .

Play Riff C twice

Fill A
|----------------------|
|----------------------|
|----------------------|Gtr
|-2-----0--2-----0-----|I&II
|---1-1------2-2---1-1-|
|----------------------|
  . . .

Play Fill A once

Riff D
|---------------------------------|---------------------------------|
|---------------------------------|---------------------------------|
|-----------------------------2p1-|-------------------------2p1-----|Gtr
|-2-----0-----2-----0-----2h3-----|-2-----0-----2-----0---------2h3-| I
|---2-2---1-1---2-2---1-1---------|---2-2---1-1---2-2---1-1---------|
|---------------------------------|---------------------------------|
| . . . . . . . . . . . .           . . . . . . . . . . . .         |
|                                                                   |
|---------------------------------|---------------------------------|
|-----------------------------3p2-|-------------------------3p2-----|
|-------------------------4h5-----|-----------------------------4h5-|Gtr
|-2-----0-----2-----0-------------|-2-----0-----2-----0-------------|II
|---2-2---1-1---2-2---1-1---------|---2-2---1-1---2-2---1-1---------|
|---------------------------------|---------------------------------|
  . . . . . . . . . . . .           . . . . . . . . . . . .

Play Riff D 4 times

Riff E
|-----------------------------------------------------|
|-----------------------------------------------------|
|-----------------------------------------------------|Gtr
|-3--3--3--3--2---5--5--5--5--4----4-/5--5--5-/7--7---| I
|-1--1--1--1--0---3--3--3--3--2----2-/3--3--3-/5--5---|
|-----------------------------------------------------|
|    .  .  .         .  .  .                          |
|                                                     |
|-----------------------------------------------------|
|-6--6--6--6--5---8--8--8--8--7----7-/8--8--8-/10-10--|
|-----------------------------------------------------|Gtr
|-----------------------------------------------------|II
|-----------------------------------------------------|
|-----------------------------------------------------|

continuation of Riff E
|----------------------------------------------------|
|----------------------------------------------------|
|----------------------------------------------------|Gtr
|-3--3--3--3--2---5--5--5--5--4----2-/5--5--5-/4--4--| I
|-1--1--1--1--0---3--3--3--3--2----2-/3--3--3-/2--2--|
|----------------------------------------------------|
|    .  .  .         .  .  .                         |
|                                                    |
|----------------------------------------------------|
|-6--6--6--6--5---8--8--8--8--7----7-h8--8--8-p7--7--|
|----------------------------------------------------|Gtr
|----------------------------------------------------|II
|----------------------------------------------------|
|----------------------------------------------------|

Play Riff E twice

Riff F
|---------------------------|---------------------------|
|---------------------------|---------------------------|
|---------------------------|---------------------------|Gtr
|--------5----------5---5-5-|---------------------------|II
|-333333-3---333333-3---3-3-|--------2----------2---2-2-|
|---------------------------|-000000-0---000000-0---0-0-|
  ......     ......           ......     ......

Play Riff F twice

Riff G
|----------------------------|----------------------------|
|----------------------------|----------------------------|
|-4-3-1-3-1------------------|-4-3-1-3-1------------------|Gtr
|-----------2-1--------------|-----------2-1--------------|I&II
|---------------2~-2---2-222-|---------------2~-6---6-666-|
|------------------0---0-000-|------------------4---4-444-|
                       . ...                        . ...

Play Riff G 3 times(on the 3rd time, Gtr II play riff H)

Riff H
|-2-1---0--------------------|-2-1---0--------------------|
|-----4---4------------------|------4--4------------------|
|-----------4-3--------------|-----------4-3--------------|Gtr
|---------------4~-----------|---------------4~-----------|II
|------------------2---2-222-|------------------6---6-666-|
|------------------0---0-000-|------------------4---4-444-|
                       . ...                        . ...

Now, go back and
Play Riff B twice
Play Riff C twice
Play Fill once
Play Riff D 4 times

END

8.) Destiny

Riff A (acoustic)
|-----2-3-2-------2-3-2---------------3-----------3---------|
|-----------------------------------3---3-------3---3-------|
|---4-------4---4-------4---4-----5-------5---5-------5---5-|Gtr
|-2-----------2-----------2-----3-----------3-----------3---|II
|-----------------------------------------------------------|
|-----------------------------------------------------------|

Play Riff A 4 times

ACOUSTIC SOLO(Chuck Schuldiner)
|---7-7~--5-7-8-5----------------8------5-7-8-7---7-/11-12~-|
|-5-------------------6-6-/10-10---10-----------5-----------|
|------------------5~---------------------------------------|Gtr
|-----------------------------------------------------------| I
|-----------------------------------------------------------|
|-----------------------------------------------------------|

|-14-10-12-----------------------------------------|
|----------12-10----10----------12p8---12-10p8--7~-|
|----------------12----7h9-----------9-------------|Gtr
|--------------------------10~---------------------| I
|--------------------------------------------------|
|--------------------------------------------------|

|--------------8~--8~--12~-12~-15~-15~-|
|-----5p3-/10~-10~-10~-13~-13~-17~-17~-|
|-4h5----------------------------------|Gtr
|--------------------------------------| I
|--------------------------------------|
|--------------------------------------|



Riff B
|----------------------------|
|----------------------------|
|----------------------------|Gtr
|----------------------------|I&II
|-6-5--------6-5--6p5-----ph-|
|-4-3-3-333--4-3------6h7-6~-|
      . ...

Continuation of Riff B
|---------------------------|
|---------------------------|
|---------------------------|Gtr
|-----------------8\7-------|I&II
|-6-5--------6-5--6\5-8/9-8-|
|-4-3-3-333--4-3------6/7-6-|
      . ...

Play Riff B 4 times

Riff C
|-----------------------------------------|
|----13--12--------------------12--13-----|
|-9----------12-----9--11--12----------14-|Gtr
|-----------------------------------------| I
|-----------------------------------------|
|-----------------------------------------|
|                                         |
|-----------------------------------------|
|-----------------------------------------|
|-----------------------------------------|Gtr
|----10--9---------------------9---10-----|II
|-7----------10-----7--9---10----------12-|
|-----------------------------------------|

Continuation of Riff C
|-------------------14--15------12---------|
|----13--12-----------------13------12--13-|
|-9----------12----------------------------|Gtr
|------------------------------------------| I
|------------------------------------------|
|------------------------------------------|
|                                          |
|------------------------------------------|
|------------------------------------------|
|-------------------11--12------9----------|Gtr
|----10--9------------------10------9---10-|II
|-7----------10----------------------------|
|------------------------------------------|

Play Riff C once

Riff D
|-------------------------------------|
|-------4-----------------4-----------|
|-----------4-----3-----------4-----3-|Gtr
|-1-1-1---1---1-1---1-1-1---1---1-1---|I&II
|-------------------------------------|
|-------------------------------------|
  . . .   .   . .   . . .   .   . .

Continuation of Riff D
|-------------------------------------|
|-------4-----------------4-----------|
|-----------4-----3-----------4-----3-|Gtr
|-0-0-0---0---0-0---0-0-0---0---0-0---|I&II
|-------------------------------------|
|-------------------------------------|
  . . .   .   . .   . . .   .   . .

Continuation of Riff D
|-------------------------------------|
|-------4-----------------4-----------|
|-----------4-----3-----------4-----3-|Gtr
|-1-1-1---1---1-1---1-1-1---1---1-1---| I
|-------------------------------------|
|-------------------------------------|
| . . .   .   . .   . . .   .   . .   |
|                                     |
|-------------------------------------|
|-------------------------------------|
|-------------------------------------|Gtr
|-------6-----------------6-----------|II
|-----------7-----6-----------7-----6-|
|-4-4-4---4---4-4---4-4-4---4---4-4---|
  . . .   .   . .   . . .   .   . .

Continuation of Riff D
|-------------------------------------|
|-------4-----------------4-----------|
|-----------4-----3-----------4-----3-|Gtr
|-0-0-0---0---0-0---0-0-0---0---0-0---| I
|-------------------------------------|
|-------------------------------------|
| . . .   .   . .   . . .   .   . .   |
|                                     |
|-------------------------------------|
|-------------------------------------|
|-------------------------------------|Gtr
|-------6-----------------6-----------|II
|-----------7-----6-----------7-----6-|
|-3-3-3---3---3-3---3-3-3---3---3-3---|
  . . .   .   . .   . . .   .   . .

Play Riff D once

Riff E(Played during Chuck's solo)
|------------------------------------------------|
|------------------------------------------------|
|------------------------------------------------|Gtr
|------------------------------------------------|II
|-0000000000044444444444---------33333333--------|
|-----------------------444444444--------3333333-|
  ..............................................

Play Riff E 4 times

Riff F
|-----------------------------------------------|
|-----------------------------------------------|
|-------7777--------------------10-9------------|Gtr
|-7---------7777999910101010---------10-9-7-----|I&II
|---0000----------------------0-------------11~-|
|-----------------------------------------------|
    ........................  .

Continuation of Riff F
|-------------------------------------------------|
|-------------------------------------------------|
|-------7777--------------------10-9----12--------|Gtr
|-7---------7777999910101010---------10-----------|I&II
|---0000----------------------0------------12-11~-|
|-------------------------------------------------|
    ........................  .

Play Riff F once

Riff G
|-----------------------|
|-----------------------|
|-----------------------|Gtr
|---------5-------3-----|I&II
|-7---6---3---5---1---3-|
|-5---4-------3-------1-|

Play Riff G twice

Now, go back and
Play Riff B 4 times
Play Riff C 4 times
Play Riff D once

END

9.) Out Of Touch

Riff A(+ keyboard)
|-----------------------------------------------------------|
|-----------------------------------------------------------|
|-----------------------------------------------------------|Gtr
|----9---------9---------9--9------8---------7---------7----| I
|-7-----7---7-----7---6---------6-----6---5-----5---5-----5-|
|-----------------------------------------------------------|
|                                                           |
|-----------------------------------------------------------|
|-----------------------------------------------------------|
|----11--------11--------11-11-----10--------9---------9----|Gtr
|-9-----9---9-----9---8---------8-----8---7-----7---7-----7-|II
|-----------------------------------------------------------|
|-----------------------------------------------------------|

Play Riff A 4 times

Riff B
|-------------------------------------------------|
|-------------------------------------------------|
|-------------------------------------------------|Gtr
|-----7---------6-----5--8------7---------6-----5-|I&II
|-----5--7------4--6--3--6------5--7------4--6--3-|
|-55-----5--55-----4--------55-----5--55-----4----|
  ..        ..              ..        ..

Play Riff B once

Riff C
|-----------------------------------------------------|
|-----------------------------------------------------|
|-----------------------------------------------------|Gtr
|---------------------------5---7---8--------8--------|I&II
|-7777777777777777------------0---0---666666---666666-|
|------------------55555555---------------------------|
  ................ ........   .   .   ......   ......

Continuation of Riff C
|----------------------|
|----------------------|
|----------------------|Gtr
|----7--------6-----5/-|I&II
|----5--7-----4--6--3/-|
|-55----5--55----4-----|
  ..       ..

Play Riff C 4 times,
on the 4th time leave out the last bar and instead play Riff B once

Riff D
|-------------------------------------------------|
|-------------------------------------------------|
|-------------------------------------------------|Gtr
|-------------------------------------------------|I&II
|-------------------------------------------------|
|-5-5-5-5-5-5-5-5-5-5-5-5-4-4-4-4-4-4-4-4-4-4-4-4-|
  . . . . . . . . . . . . . . . . . . . . . . . .

Continuation of Riff D
|-----------------------------------------------|
|-----------------------------------------------|
|-----------------------------------------------|Gtr
|---------------------------------------------7-|I&II
|------------------------------------------7--5-|
|-0-0-0-0-0-0-0-0-0-0-0-0-1-1-1-1-1-1-4444-5----|
  . . . . . . . . . . . . . . . . . . ....

Play Riff D twice

Riff E
|-------------------------------------------------|
|-------------------------------------------------|
|-------------------------------------------------|Gtr
|-------------------------------------------------| I
|-------------------------------------------------|
|-5-5-5-5-5-5-5-5-5-5-5-5-4-4-4-4-4-4-4-4-4-4-4-4-|
| . . . . . . . . . . . . . . . . . . . . . . . . |
|                                                 |
|-------------------------------------------------|
|-------------------------------------------------|
|-------------------------------------------------|Gtr
|-------------6-----5-----------------6-----5-----|II
|-7-----6-------7-6---6-5-7-----6-------7-6---6-5-|
|---8-7---7-6---------------8-7---7-6-------------|


Continuation of Riff E
|-----------------------------------------------|
|-----------------------------------------------|
|-----------------------------------------------|Gtr
|---------------------------------------------7-| I
|------------------------------------------7--5-|
|-0-0-0-0-0-0-0-0-0-0-0-0-1-1-1-1-1-1-4444-5----|
  . . . . . . . . . . . . . . . . . . ....

|-----------------------------------------------|
|-----------------------------------------------|
|-----------------------------------------------|Gtr
|-------------6-----5-------------------------7-|II
|--7-----6------7-6---6-5-7-----6----------7--5-|
|----8-7---7-6--------------8-7---7-6-4444-5----|
                                      ....

Play Riff E twice

Riff F
|------------------------------------------------------|
|------------------------------------------------------|
|------------------------------------------------------|Gtr
|-------10-9-------10-9----------10-9-------10-9----12-| I
|-0-0-0------0-0-0------10-6-6-6------6-6-6------10----|
|------------------------------------------------------|
| . . .      . . .         . . .      . . .            |
|                                                      |
|------------------------------------------------------|
|------------------------------------------------------|
|------------------------------------------------------|GTR
|------------------------------------------------------|II
|-0-0-0------0-0-0---------6-6-6------6-6-6------------|
|------------------------------------------------------|
  . . .      . . .         . . .      . . .

Play Riff F twice

Riff G
|---------------------------------------------------|
|---------------------------------------------------|
|---------------------------------------------------|Gtr
|-------10---------10-9----------10---------10-9----|I&II
|-0-0-0----0-0-0-0------10-0-0-0----0-0-0-0------10-|
|---------------------------------------------------|
  . . .    . . . .         . . .    . . . .

Continuation of Riff G
|-----------------------------------------------------------|
|-----------------------------------------------------------|
|-----------------------------------------------------------|Gtr
|-------10---------10-9----------10---------10-9----12-9----|I&II
|-6-6-6----6-6-6-6------10-6-6-6----6-6-6-6------10------10-|
|-----------------------------------------------------------|
  . . .    . . . .         . . .    . . . .

Play Riff G twice

Riff H
|---------------------------------------------------|
|---------------------------------------------------|
|---------------------------------------------------|Gtr
|-------10---------10-9----------10---------10-9----| I
|-0-0-0----0-0-0-0------10-0-0-0----0-0-0-0------10-|
|---------------------------------------------------|
| . . .    . . . .         . . .    . . . .         |
|                                                   |
|-------8----------8--7-----------8---------8--7----|
|-5-5-5----5-5-5-5-------8-5-5-5----5-5-5-5------8--|
|---------------------------------------------------|Gtr
|---------------------------------------------------|II
|---------------------------------------------------|
|---------------------------------------------------|

Continuation of Riff H
|-----------------------------------------------------------|
|-----------------------------------------------------------|
|-----------------------------------------------------------|Gtr
|-------10---------10-9----------10---------10-9----12-9----| I
|-6-6-6----6-6-6-6------10-6-6-6----6-6-6-6------10------10-|
|-----------------------------------------------------------|
| . . .    . . . .         . . .    . . . .                 |
|                                                           |
|-------8----------8--7----------8-----------8--7---10-7----|
|-4-4-4----4-4-4-4------8--4-4-4----4-4-4-4-------8------8--|
|-----------------------------------------------------------|Gtr
|-----------------------------------------------------------|II
|-----------------------------------------------------------|
|-----------------------------------------------------------|

Play Riff H twice

Riff I
|---------------------------------------------------|
|---------------------------------------------------|
|---------------------------------------------------|Gtr
|-------10---------10-9----------10---------10-9----| I
|-0-0-0----0-0-0-0------10-0-0-0----0-0-0-0------10-|
|---------------------------------------------------|
| . . .    . . . .         . . .    . . . .         |
|                                                   |
|---------------------------------------------------|
|---------------------------------------------------|Gtr
|-------10---------10-9----------10---------10-9----|II
|-0-0-0----0-0-0-0------10-0-0-0----0-0-0-0------10-|
|---------------------------------------------------|
|---------------------------------------------------|
  . . .    . . . .         . . .    . . . .

Continuation of Riff I
|-----------------------------------------------------------|
|-----------------------------------------------------------|
|-----------------------------------------------------------|Gtr
|-------10---------10-9----------10---------10-9----12-9----| I
|-6-6-6----6-6-6-6------10-6-6-6----6-6-6-6------10------10-|
|-----------------------------------------------------------|
| . . .    . . . .         . . .    . . . .                 |
|                                                           |
|-----------------------------------------------------------|
|-----------------------------------------------------------|Gtr
|-------10---------10-9----------10---------10-9----12-9----|II
|-6-6-6----6-6-6-6------10-6-6-6----6-6-6-6------10------10-|
|-----------------------------------------------------------|
|-----------------------------------------------------------|
  . . .    . . . .         . . .    . . . .

Play Riff I twice

Riff J(Played during Chuck's solo)
|----------------------------------------------------------|
|----------------------------------------------------------|
|----------------------------------------------------------|Gtr
|----------------------------------------------------------|II
|--------------5--2--7------------5--5------------5-5--5-5-|
|-222222222222-3--0--5--222222222-3--3--222222222-3-3--3-3-|
  ............          .........       .........

Play Riff J 4 times

Riff K
|--------------------------------------------------------------------------|
|--------------------------------------------------------------------------|
|-12-11-9--------------12-11-9-------------12-11-9-------------------------|Gtr
|---------12-11-9-11~----------12-11-9-11~---------12-11-9-11~--11-12-9--8-| I
|--------------------------------------------------------------------------|
|--------------------------------------------------------------------------|
| .  .  . .  .  .       .  .  . .  .  .    .  .  . .  .  .                 |
|                                                                          |
|--------------------------------------------------------------------------|
|--------------------------------------------------------------------------|
|-12-11-9--------------12-11-9-------------12-11-9-------------------11-12-|Gtr
|---------12-11-9-11~----------12-11-9-11~---------12-11-9-11~--11-12------|II
|--------------------------------------------------------------------------|
|--------------------------------------------------------------------------|
  .  .  . .  .  .      .  .  . .  . .      .  .  . .  .  .

Play Riff K twice

Riff L
|---------------------------------------------|
|---------------------------------------------|
|-12-11-9---------------12-11-9---------------|Gtr
|----------12-11-9--11~----------12-11-9--11~-| I
|---------------------------------------------|
|---------------------------------------------|
| .  .  .  .  .  .      .  .  .  .  .  .      |
|                                             |
|---------------------------------------------|
|---------------------------------------------|
|-17-16-14--------------17-16-14--------------|Gtr
|----------17-16-14-16~----------17-16-14-16~-|II
|---------------------------------------------|
|---------------------------------------------|
  .  .  .  .  .  .      .  .  .  .  .  .

Continuation of Riff L
|-----------------------------------|
|-----------------------------------|
|-12-11-9---------------------------|Gtr
|----------12-11-9--11~-11-12-9--8--|I
|-----------------------------------|
|-----------------------------------|
| .  .  .   . .  .                  |
|                                   |
|-----------------------------------|
|-----------------------------------|
|-17-16-14--------------------------|Gtr
|----------17-16-14-16~-16-17-14-13-|II
|-----------------------------------|
|-----------------------------------|
  .  .  .  .  .  .

Continuation of Riff L
|---------------------------------------------|
|---------------------------------------------|
|-12-11-9---------------12-11-9---------------|Gtr
|----------12-11-9--11~----------12-11-9--11~-|I
|---------------------------------------------|
|---------------------------------------------|
| .  .  .  .  .  .      .  .  .  .  .  .      |
|                                             |
|---------------------------------------------|
|---------------------------------------------|
|-17-16-14--------------17-16-14--------------|Gtr
|----------17-16-14-16~----------17-16-14-16~-|II
|---------------------------------------------|
|---------------------------------------------|
  .  .  .  .  .  .      .  .  .  .  .  .

Continuation of Riff L
|------------------------------------------------|
|------------------------------------11-12-14-15-|
|-12-11-9----------------------11-12-------------|Gtr
|----------12-11-9--11~--11-12-------------------|I
|------------------------------------------------|
|------------------------------------------------|
| .  .  .  .  .  .                               |
|                                                |
|------------------------------------------------|
|------------------------------------16-17-19-20-|
|-17-16-14---------------------16-17-------------|Gtr
|----------17-16-14-16~--16-17-------------------|II
|------------------------------------------------|
|------------------------------------------------|
  .  .  .  .  .  .

Play Riff L once

Fill A
|-15-13-12-13-12-10-12--------------------------------------------|
|----------------------15-13-15-13-12-----------------------------|
|-------------------------------------14-13-----------------------|Gtr
|-------------------------------------------15-14-12--------------| I
|----------------------------------------------------15-14-12-14~-|
|-----------------------------------------------------------------|
|                                                                 |
|-20-18-17-18-17-15-17--------------------------------------------|
|----------------------20-18-20-18-17-----------------------------|
|-------------------------------------19-18-----------------------|Gtr
|-------------------------------------------20-19-17--------------|II
|----------------------------------------------------20-19-17-19~-|
|-----------------------------------------------------------------|

Play Fill A once

Pick slides, then:
Play Riff C 4 times,
on the 4th time leave out the last bar and instead play Riff B once
Play Riff D twice
Play Riff E twice

END

10.) The Philosopher

Gtr I (D G C F A D) - 'Guitar 1'
Gtr II (D G C F A D) - 'Guitar 2'
Gtr III (D G C F A D) - 'Lead'
Gtr IV (D G C F A D) - 'Lead Harmony'

   Intro (0:00)
    Q=130
   4/4
    Gtrs I, II
            T              T                  T                T
||--------------------------------|------------------------------------|
||o-------------------------------|------------------------------------|
||----9h12-16p12p9---9h12-16p12p9-|----11h14-19p14p11---11h14-17p14p11-|
||--9--------------9--------------|--9----------------9----------------|
||o-------------------------------|------------------------------------|
||--------------------------------|------------------------------------|
|
|   Gtr III
||--------------------------------|------------------------------------|
||o-------------------------------|------------------------------------|
||--9-----------------------------|-14---------------------------------|
||--------------------------------|------------------------------------|
||o-7-----------------------------|-12---------------------------------|
||--------------------------------|------------------------------------|


           T              T                T              T
|--------------------------------|---------------------------------||
|--------------------------------|--------------------------------o||
|----9h12-16p12p9---9h12-16p12p9-|---8h11-16p11p8---8h11-14-11-8---||
|--9--------------9--------------|-9--------------9----------------||
|--------------------------------|--------------------------------o||
|--------------------------------|---------------------------------||
|
|--------------------------------|---------------------------------||
|--------------------------------|--------------------------------o||
|-12-----------------------------|-8-------------------------------||
|--------------------------------|---------------------------------||
|-10-----------------------------|-6------------------------------o||
|--------------------------------|---------------------------------||


   Verse (0:15)
                 5/4
                  PM----|  PM----------|
                                           8x
||--------------|--------------------------||
||o-------------|-------------------------o||
||--------------|--------------------------||
||--4-----------|--------------------------||
||o-2--2--4--3--|-3-3-3-3--3-3-3-3-3-3-3--o||
||-----0--2--1--|-1-1-1-1--1-1-1-1-1-1-1---||


 Pre-Chorus (0:48)
 4/4
  Gtr I
     PM| ~  PM|             PM| ~        ~
|----------------------|-------------------|
|----------------------|-------------------|
|----------------------|-------------------|
|----------------------|-------------------|
|-2------7------6-7--9-|-2------7--7p6-----|
|-0--0-0----0-0--------|-0--0-0--------7-9-|
|
| Gtr II
|    PM| ~  PM|             PM| ~        ~
|----------------------|-------------------|
|----------------------|-------------------|
|----------------------|-------------------|
|---------------8-9-11-|-------------------|
|-2------7-------------|-2------7--7p6-----|
|-0--0-0----0-0--------|-0--0-0--------7-9-|


     PM| ~  PM--|  PM|      PM| ~  PM| ~
|----------------------|------------------|
|----------------------|------------------|
|----------------------|------------------|
|----------------------|------------------|
|-6------7--6-6-6--6-6-|-6------6--6-6----|
|-4--4-4----4-4-4--4-4-|-4--4-4----4-4-3--|
|
|    PM| ~  PM--|  PM|      PM| ~  PM| ~
|----------------------|------------------|
|----------------------|------------------|
|----------------------|------------------|
|----------------------|------------------|
|-6------7--6-6-6--6-6-|-6------6--6-6----|
|-4--4-4----4-4-4--4-4-|-4--4-4----4-4-3--|


  Gtrs I, II
     PM|  ~~~ PM--|  PM|      PM| ~  PM| ~
|------------------------|------------------|
|------------------------|------------------|
|------------------------|------------------|
|------------------------|------------------|
|-6------[7]--6-6-6--6-6-|-6------6--6-6----|
|-4--4-4------4-4-4--4-4-|-4--4-4----4-4-3--|


 Chorus (1:00)
                         ~
|-------------|-------------|-------------|---------------|
|-------------|-------------|-------------|---------------|
|------/11----|-8-9-8-------|------/11----|-8-9-8---------|
|-2-----------|-------------|-2-----------|---------------|
|-2-----/9----|-6-7-6-------|-2-----/9----|-6-7-6----9-11-|
|-0-----------|----------7--|-0-----------|----------7--9-|


 Post-Chorus (1:08)
     PM|  ~~~ PM--|  PM|      PM| ~  PM|  ~~~
|------------------------|--------------------|
|------------------------|--------------------|
|------------------------|--------------------|
|------------------------|--------------------|
|-6------[7]--6-6-6--6-6-|-6------6--6-6------|
|-4--4-4------4-4-4--4-4-|-4--4-4----4-4-[3]--|


     PM| ~  PM--|  PM|      PM| ~  PM|  ~~~
|----------------------|--------------------|
|----------------------|--------------------|
|----------------------|--------------------|
|----------------------|--------------------|
|-6------7--6-6-6--6-6-|-6------6--6-6------|
|-4--4-4----4-4-4--4-4-|-4--4-4----4-4-[3]--|


 Guitar Solo (1:16)
  Q=105
 3/4
  PM--|   PM------|   PM--------|   PM------|   PM---
|-------------------------|-------------------------|
|-------------------------|-------------------------|
|-------------------------|-------------------------|
|-------7-----------7-----|-------5-----------5-----|
|-------------------------|-3-3-3---3-3-3-3-3---3-3-|
|-5-5-5---5-5-5-5-5---5-5-|-------------------------|


 -----|   PM------|   PM--------|   PM------|   PM|
|-------------------------|---------------------------|
|-------------------------|---------------------------|
|-------------------------|---------------------------|
|-------------------------|-------7-----------7-------|
|-------5-----------5-----|-5-5-5---5-5-5-5-5---5-5---|
|-3-3-3---3-3-3-3-3---3-3-|---------------------------|


  Gtrs I, II
   PM--|    PM------|      PM-----------|   PM------|   PM---
|------------------------------|----------------------------|
|------------------------------|----------------------------|
|------------------------------|----------------------------|
|---------7--------------7-----|----------5-----------5-----|
|------------------------------|---3--3-3---3-3-3-3-3---3-3-|
|--5-5--5---5-5-5-5---5----5-5-|----------------------------|
|
| Gtr III
|------------------------------|----------------------------|
|------------------------------|----------------------------|
|-14---16-----------(16)-------|-(16)-----------------------|
|------------------------------|----------------------------|
|------------------------------|----------------------------|
|------------------------------|----------------------------|


 ------|     PM-------|     PM---------|     PM------|   PM|
|-------------------------------|-------------------------------|
|-------------------------------|-------------------------------|
|-------------------------------|-------------------------------|
|-------------------------------|---------7------------7--------|
|---------5--------------5------|--5-5--5----5-5-5-5-5---5-5----|
|--3-3--3----3-3--3-3--3----3-3-|-------------------------------|
|
|-------------------------------|-------------------------------|
|-------------------------------|-------------------------------|
|-14---16---16---16---17---17---|-17---17S==19------------------|
|-------------------------------|-------------------------------|
|-------------------------------|-------------------------------|
|-------------------------------|-------------------------------|


  Gtrs I, II
   PM---|      PM---------|   ~~         PM---|      PM---------|   ~~
|-------------------------------------|-------------------------------------|
|-------------------------------------|-------------------------------------|
|-------------------------------------|-------------------------------------|
|-----------5-----------------7-------|-----------5-----------------7-------|
|-------------------------------------|--3--3--3-----3--3--3--3--3----------|
|--5--5--5-----5--5--5--5--5----------|-------------------------------------|
|
| Gtr III
|-------------------17----------------|-------------------------------------|
|----------15-17-18----18-17-15-------|----------15-------------------------|
|-14-16-17----------------------17-16-|-14-16-17----17-16-14----------------|
|-------------------------------------|----------------------15-14-12-------|
|-------------------------------------|-------------------------------14-15-|
|-------------------------------------|-------------------------------------|
|
| Gtr IV
|----------------20-24-20-------------|-------------------------------------|
|----------22-24----------24-22-------|----------22-------------------------|
|-21-23-24----------------------24-23-|-21-23-24----24-23-21----------------|
|-------------------------------------|----------------------22-21-19-------|
|-------------------------------------|-------------------------------21-22-|
|-------------------------------------|-------------------------------------|


   PM---|       PM-------|    PM--------------------|       PM-------|   PM|
|----------------------------------------|-----------------------------------|
|----------------------------------------|-----------------------------------|
|----------------------------------------|-----------------------------------|
|----------------------------------------|--------------7--------------7-----|
|-----------5--------------5-------------|--5-----5--5------5--5-5-5-5---5-5-|
|--3--3--3------3--3-3-3-3----3-----3----|-----------------------------------|
|
|           ~~~~~~~                                     ~~~~~~~
|----------------------------------------|-----------------------------------|
|----------------------------------------|-----------------------------------|
|----------------------------------------|-----------------------------------|
|-12-------------------------------------|-------15--------------------------|
|----15-14-14-(14)-----------14-14-15-15-|-17-17----15-14-(14)---------------|
|----------------------------------------|-----------------------------------|
|
|           ~~~~~~~                                     ~~~~~~~
|----------------------------------------|-----------------------------------|
|----------------------------------------|-------18--------------------------|
|----------------------------16-16-17-17-|-19-19----17-16-(16)---------------|
|-19-------------------------------------|-----------------------------------|
|----22-21-21-(21)-----------------------|-----------------------------------|
|----------------------------------------|-----------------------------------|


   PM--------|           PM-----------------------|     ~~~
|------------------------------------------------------------------|
|------------------------------------------------------------------|
|------------------------------------------------------------------|
|------------------5------------------------------------7----------|
|------------------------------------------------------------------|
|--5----5-----5----------5----5-----5--------5----5----------------|
|
|-12h14h==15-12h14h==15-12h14h==15-15h17h19-15h17h==19-19p17p15-17-|
|------------------------------------------------------------------|
|------------------------------------------------------------------|
|------------------------------------------------------------------|
|------------------------------------------------------------------|
|------------------------------------------------------------------|


   PM-----------|           PM-------------------|     ~
|----------------------------------------------------------------------|
|----------------------------------------------------------------------|
|----------------------------------------------------------------------|
|---------------------5--------------------------------7---------------|
|--3-------3-----3----------3----3-----3----3-----3--------------------|
|----------------------------------------------------------------------|
|
|-19h20p19p==17-15h17h==19p17p15---17h19h20p==19p17-15h==17h19p17p15---|
|----------------------------------------------------------------------|
|----------------------------------------------------------------------|
|----------------------------------------------------------------------|
|----------------------------------------------------------------------|
|----------------------------------------------------------------------|


   PM--------|          PM-----------|   PM---
|--------------------------------------------|
|--------------------------------------------|
|--------------------------------------------|
|--------------------------------------------|
|-------------------5------------------5-----|
|--3----3-----3---------3------3-3-3-3---3-3-|
|
|-17h19h==20-20pb22---(20)pb22---------------|
|--------------------------------------------|
|--------------------------------------------|
|--------------------------------------------|
|--------------------------------------------|
|--------------------------------------------|


 ---------|    PM------------|
|-------------------------------------------|
|-------------------------------------------|
|-------------------------------------------|
|-----------7------------------------5--4---|
|--5----5-5----5--5--5--5-----5-----------5-|
|-------------------------------------------|
|
|  ~~~~~~                        ~~~~~~~
|-20b22r======20-19-17-17h19p17-------------|
|-------------------------------20-(20)-----|
|-------------------------------------------|
|-------------------------------------------|
|-------------------------------------------|
|-------------------------------------------|


 Bridge (1:45)
  Q=70
 7/8
|---------------------------------------
|---------------------------------------
|-----------0---------------------------
|-------4-------------------------------
|--2----------------------------------3-
|-------------------------1-------------
|
|
|---------------------------------------
|-21b22r==(21)b22r(21)b22r==(21)b22r(21)
|---------------------------------------
|---------------------------------------
|---------------------------------------
|---------------------------------------

 7/8
-----------------------------------------------------|
-----------------------------------------------------|
-----------------------------------------------------|
------------3-------------------0------------4-5-4---|
--------------------------6---------------2--------5-|
--------------------4-----------------0--------------|

                                      ~~~~~~~~~~~~~~~~
-----------------------------------------------------|
b22r(21)b22r==(21)-20-17-16----16--------------------|
----------------------------17----17-16-(16)---------|
-----------------------------------------------------|
-----------------------------------------------------|
-----------------------------------------------------|

|----------------------------------|
|----------------------------------|
|--------0-------------------------|
|------4-------3-----0-----4-5-4---|
|---2--------3-----6-----2-------5-|
|----------1-----4-----0-----------|
|
|~~~~~~
|----------------------------------|
|----------------------------------|
|-(16)-----------------------------|
|----------------------------------|
|----------------------------------|
|----------------------------------|


                                                      1.
||--------------------------------|--------------------------------||
||o-------------------------------|-------------------------------o||
||------0-------------------------|-----0--------------------------||
||----4-------3-----0-----4-5-4---|---4-------3-----0-----4-5-4----||
||o-2-------3-----6-----2-------5-|-2-------3-----6-----2-------5-o||
||--------1-----4-----0-----------|-------1-----4-----0------------||


 Verse (2:05) x 8

 Pre-Chorus (2:37)

 Chorus (2:50)

 Post-Chorus (2:58)

 Outro (3:06) - This part alternates between Steve DiGiorgio and Chuck.
	It fades out as Chuck picks up the speed on the second solo, which
	made it hard to figure out.

Backing guitar for Steve's solos:

 3/4               4/4
|--------|--------|--------|
|--------|--------|--------|
|--------|--------|--------|
|--------|--------|--------|
|-7------|-8------|-(8)----|
|-5------|-6------|-(6)----|


First solo comes in on end of rhythm figure:

 3/4               4/4
  Gtrs I, II
|--------|--------|----------------|
|--------|--------|----------------|
|--------|--------|----------------|
|--------|--------|----------------|
|-7------|-8------|-(8)------------|
|-5------|-6------|-(6)------------|
|
| Gtr III
|                              ~~~~
|--------|--------|----------------|
|--------|--------|----------------|
|--------|--------|----------------|
|--------|--------|----------------|
|--------|--------|----------------|
|--------|--------|----------[13]--|

First solo:

 3/4
|---------------------------------------|
|---------------------------------------|
|---------------------------------------|
|---------------------------------------|
|----2----------------------------------|
|----0----------------------------------|
|
|---------------------------------------|
|---------------------------------------|
|---------16-14-17----------------------|
|------------------17p16p14-17p16p14-17-|
|---------------------------------------|
|-([13])--------------------------------|


                                       4/4
|-------------------------------------|-------------------------------------|
|-------------------------------------|-------------------------------------|
|-------------------------------------|-------------------------------------|
|-------------------------------------|-------------------------------------|
|--3----------------------------------|-(3)---------------------------------|
|--1----------------------------------|-(1)---------------------------------|
|
|                 ~~~~~~~                          ~~~~~~~~~~
|-------------------------------------|-------------------------------------|
|-------------------------------------|--------17---------------------------|
|-------------------------------------|-----16----14-(14)-15--------14h15---|
|-14-17-16-14----------------14----14h|=15--------------------17-16---------|
|-------------15-14-(14)--15----15----|-------------------------------------|
|-------------------------------------|-------------------------------------|


 3/4                                        4/4
|----------------------------|-------------|---------------------------|
|----------------------------|-------------|---------------------------|
|----------------------------|-------------|---------------------------|
|----------------------------|-------------|---------------------------|
|--2-------------------------|--3----------|--(3)----------------------|
|--0-------------------------|--1----------|--(1)----------------------|
|
|                          ~~         ~~~~~~~~~~~~             ~~
|-------------20----17-19----|-------------|------------17-19----------|
|-17-------19----19-------20-|-19----19----|-(19)----19-------20-19----|
|----16h17-------------------|----17-------|------------------------17-|
|----------------------------|-------------|---------------------------|
|----------------------------|-------------|---------------------------|
|----------------------------|-------------|---------------------------|


Steve solo for another 6 measures

Solo 2:


 3/4                             4/4
|---------------|---------------|--------------------|
|---------------|---------------|--------------------|
|---------------|---------------|--------------------|
|---------------|---------------|--------------------|
|--2------------|--3------------|-(3)----------------|
|--0------------|--1------------|-(1)----------------|
|
|           ~~              ~~                  ~~
|---------------|---------------|--------------------|
|-17----17-20---|-17----17-19---|-17-----17-16-------|
|----16---------|----16---------|-----16-------17----|
|---------------|---------------|--------------------|
|---------------|---------------|--------------------|
|---------------|---------------|--------------------|


 3/4
|-------------------------------------------------------|
|-------------------------------------------------------|
|-------------------------------------------------------|
|-------------------------------------------------------|
|---2---------------------------------------------------|
|---0---------------------------------------------------|
|
|   ~~~~
|----------------------------------------17-19-21-19-17-|
|----------------19-21-19-18----------------------------|
|-(17)--20-22-20-------------17h18h19p18----------------|
|-------------------------------------------------------|
|-------------------------------------------------------|
|-------------------------------------------------------|



|-------------------------------------------------------|
|-------------------------------------------------------|
|-------------------------------------------------------|
|-------------------------------------------------------|
|--3----------------------------------------------------|
|--1----------------------------------------------------|
|
|
|-19-17----------------------------------15-17-19-17-15-|
|-------20----17h19----17h19----17h19-20----------------|
|----------20-------20-------20-------------------------|
|-------------------------------------------------------|
|-------------------------------------------------------|
|-------------------------------------------------------|

 4/4
|--------------------------------------|
|--------------------------------------|
|--------------------------------------|
|--------------------------------------|
|-(3)----------------------------------|
|-(1)----------------------------------|
|
|           ~~          ~~          ~~
|--------------------------------------|
|-16h17p16-----------------------------|
|----------17-16-14-16-------------17--|
|----------------------17-14-16-17-----|
|--------------------------------------|
|--------------------------------------|

Steve solo for another 6 measures

Solo 3:


 3/4
|----------------------------------------|
|----------------------------------------|
|----------------------------------------|
|----------------------------------------|
|--2-------------------------------------|
|--0-------------------------------------|
|
|----------------------------------------|
|-15----(15)----(15)----(15)----(15)-----|
|-18b19r(18)b19r(18)b19r(18)b19r(18)b19--|
|----------------------------------------|
|----------------------------------------|
|----------------------------------------|


                                         4/4
|---------------------------------------|----------------------|
|---------------------------------------|----------------------|
|---------------------------------------|----------------------|
|---------------------------------------|----------------------|
|---3-----------------------------------|--(3)-----------------|
|---1-----------------------------------|--(1)-----------------|
|
|---------------------------------------|----------------------|
|-(15)--(15)----(15)----(15)----(15)----|-(15)----(15)-(15)----|
|-(18)--(18)b19r(18)b19r(18)b19r(18)b19r|=(18)b19r(18)-(18)----|
|---------------------------------------|----------------------|
|---------------------------------------|----------------------|
|---------------------------------------|----------------------|


 3/4               4/4
|--------|--------|--------|
|--------|--------|--------|
|--------|--------|--------|
|--------|--------|--------|
|-2------|-3------|-(3)----|
|-0------|-1------|-(1)----|


 3/4               4/4
|--------|--------|--------*|
|--------|--------|--------*|
|--------|--------|--------*|
|--------|--------|--------*|
|-7------|-8------|-(8)----*|
|-5------|-6------|-(6)----*|

Tap to rate this tab
# A B C D E F G H I J K L M N O P Q R S T U V W X Y Z