Song name
# A B C D E F G H I J K L M N O P Q R S T U V W X Y Z

Death - Pull The Plug tab

#----------------------------------PLEASE NOTE---------------------------------#
#This file is the author's own work and represents their interpretation of the #
#song. You may only use this file for private study, scholarship, or research. #
#------------------------------------------------------------------------------#

PULL THE PLUG
As recorded by Death
(From the 1988 Album LEPROSY)

Transcribed by livingzombie
	

Words and Music by Chuck Schuldiner

Gtr I (D G C F A D) - 'Chuck Schuldiner'
Gtr II (D G C F A D) - 'Rick Rozz'

 Intro/Verse
  Q=154
               $
                   E5   Bb5    F5   C#5    G#5  C5     N.C.
 4/4
       Gtrs I, II
       PM----|                                          ~~~   PM----|
  H    E E E E     H    H      H    H      H    H       H     E E E E    4x
|--------------||------------|-----------|-----------|-------------------||
|--------------||o-----------|-----------|-----------|------------------o||
|--------------||-------3----|------6----|------5----|-------------------||
|--------------||--2----3----|-3----6----|-6----5----|-[5]---------------||
|------3-2-----||o-2----1----|-3----4----|-6----3----|--------3-2-------o||
|----------3-2-||--0---------|-1---------|-4---------|------------3-2----||


 Pre-Chorus
  Q=160
  E5N.C.                                             F#G5
  Gtr I
  PM-----------------------------------------------|
  S S S S S  S E E S S S S E   E S S S S S S S S S S E E
|----------------------------|----------------------------|
|----------------------------|----------------------------|
|----------------------------|----------------------------|
|----------------------------|----------------------------|
|----------------------------|-----------------------4s5--|
|-0-0-0-0-0--0-7-8-0-0-0-0-5-|-7-0-0-0-0-3-3-5-5-3-3-2s3--|
|
| Gtr II
| Q       H.                   W
|----------------------------|----------------------------|
|----------------------------|----------------------------|
|----------------------------|----------------------------|
|-2--------------------------|----------------------------|
|-2--------------------------|----------------------------|
|-0--------------------------|----------------------------|


  N.C.
  Gtrs I, II
  PM--------------------------------------------------------------|
  S S S S S S S S S S S S S S S S   S S S S S S S S S S S S S S S S
|---------------------------------|---------------------------------|
|---------------------------------|---------------------------------|
|---------------------------------|---------------------------------|
|---------------------------------|---------------------------------|
|---------------------------------|-2-2-2-2-2-2-2-2-2-2-2-2-2-2-2-2-|
|-1-1-1-1-1-1-1-1-1-1-1-1-1-1-1-1-|---------------------------------|


                                                      F#G5
    PM----------------------------------------------|
    S S S S S S E E S S S S E   E S S S S S S S S S S E E
||----------------------------|---------------------------|
||o---------------------------|---------------------------|
||----------------------------|---------------------------|
||----------------------------|---------------------------|
||o---------------------------|-----------------------4s5-|
||--0-0-0-0-0-0-7-8-0-0-0-0-5-|-7-0-0-0-0-3-3-5-5-3-3-2s3-|


                                   1.
  N.C.
  PM--------------------------------------------------------------|
  S S S S S S S S S S S S S S S S   S S S S S S S S S S S S S S S S
|---------------------------------|---------------------------------|
|---------------------------------|---------------------------------|
|---------------------------------|---------------------------------|
|---------------------------------|---------------------------------|
|---------------------------------|-1-1-1-1-1-1-1-1-1-1-1-1-1-1-1-1-|
|-1-1-1-1-1-1-1-1-1-1-1-1-1-1-1-1-|---------------------------------|


                                                    F#G5
  PM----------------------------------------------|
  S S S S S S E E S S S S E   E S S S S S S S S S S E E
|---------------------------|----------------------------|
|---------------------------|----------------------------|
|---------------------------|----------------------------|
|---------------------------|----------------------------|
|---------------------------|-----------------------4s5--|
|-0-0-0-0-0-0-7-8-0-0-0-0-5-|-7-0-0-0-0-3-3-5-5-3-3-2s3--|


  N.C.
  PM-------------------------------
  S S S S S S S S S S S S S S S S
|---------------------------------|
|---------------------------------|
|---------------------------------|
|---------------------------------|
|---------------------------------|
|-1-1-1-1-1-1-1-1-1-1-1-1-1-1-1-1-|


                                     2.
                                      Bb5
 -------------------------------|
  S S S S S S S S S S S S S S S S     E E H.
|----------------------------------||-----------||
|---------------------------------o||-----------||
|----------------------------------||-----------||
|----------------------------------||-3---------||
|-2-2-2-2-2-2-2-2-2-2-2-2-2-2-2-2-o||-1---------||
|----------------------------------||-----------||


   Chorus
    Q.=96
    N.C.    E5                    N.C.    F5     B5 G5Bb5
   6/8
    PM----|        PM----|        PM----|
    E S S E Q.     E S S E Q.     E S S E Q.     Q  E Q.
||---------------|--------------|--------------|-----------|
||o--------------|--------------|--------------|-----------|
||---------------|--------------|--------------|-----------|
||----------2----|---------2----|---------3----|-4----3----|
||o---------2----|---------2----|---------3----|-2--5-1----|
||--0-0-0-0-0----|-0-0-0-0-0----|-1-1-1-1-1----|----3------|


                                              1.            2.
                                                                    Fine
  N.C.    E5                    N.C.    F5     B5 G5C5       B5 G5C5
                                                            5/8
  PM----|        PM----|        PM----|
  E S S E Q.     E S S E Q.     E S S E Q.     Q  E Q.       Q  E Q
|--------------|--------------|--------------|------------||---------||
|--------------|--------------|--------------|-----------o||---------||
|--------------|--------------|--------------|------------||---------||
|---------2----|---------2----|---------3----|-4----5-----||-4----5--||
|---------2----|---------2----|---------3----|-2--5-3----o||-2--5-3--||
|-0-0-0-0-0----|-0-0-0-0-0----|-1-1-1-1-1----|----3-------||----3----||


   Bridge
    Q=110
    N.C.
   4/4
                  PM                              PM
    S S S S S S S S S S S S S S E   S S S S S S S S S S S S S S E  3x
||--------------------------------|--------------------------------||
||o-------------------------------|-------------------------------o||
||--------------------------------|--------------------------------||
||--------------------------------|--------------------------------||
||o-7p6---9p8---7---7p6---9p8---7-|-7p6---9p8---7---7p6---9p8---7-o||
||------7-----9---8-----7-----9---|-----7-----9---8-----7-----9----||


  Q=124
  Gtr I
    PM~    PM~      PM~    PM~      PM~    PM~      PM~    PM~
  E E Q  E E Q    E E Q  E E Q    E E Q  E E Q    E E Q  E E Q
|---------------|---------------|---------------|---------------|
|---------------|---------------|---------------|---------------|
|---------------|---------------|---------------|---------------|
|--------6---5--|-2---1--3---2--|--------6---5--|-2---1--3---2--|
|-5---4----7----|---3------4----|-5---4----7----|---3------4----|
|---6-----------|---------------|---6-----------|---------------|
|
| Gtr II
|   PM~    PM~      PM~    PM~      PM~    PM~      PM~    PM~
| E E Q  E E Q    E E Q  E E Q    E E Q  E E Q    E E Q  E E Q
|---------------|---------------|---------------|---------------|
|---------------|---------------|---------------|--------6---5--|
|---------------|---------------|---------------|----------6----|
|--------6---5--|-2---1--3---2--|--------6---5--|-2---1---------|
|-5---4----7----|---3------4----|-5---4----7----|---3-----------|
|---6-----------|---------------|---6-----------|---------------|


                                                 2/4
    PM~    PM~      PM~    PM~      PM~    PM~      PM~
  E E Q  E E Q    E E Q  E E Q    E E Q  E E Q    E E Q
|---------------|---------------|---------------|--------||
|---------------|---------------|---------------|--------||
|---------------|---------------|---------------|--------||
|--------6---5--|-2---1--3---2--|--------6---5--|-2---1--||
|-5---4----7----|---3------4----|-5---4----7----|---3----||
|---6-----------|---------------|---6-----------|--------||
|
|   PM~    PM~      PM~    PM~      PM~    PM~      PM~
| E E Q  E E Q    E E Q  E E Q    E E Q  E E Q    E E Q
|---------------|---------------|---------------|--------||
|--------9---8--|-5---4--6---5--|--------9---8--|-5---4--||
|-7---6----9----|---5------6----|-7---6----9----|---5----||
|---8-----------|---------------|---8-----------|--------||
|---------------|---------------|---------------|--------||
|---------------|---------------|---------------|--------||


    Q=202
   4/4
    Gtrs I, II
    PM------------|                 PM----------------------------|
    S S S S S S S S E E E E  4x     S S S S S S S S S S S S S S S S
||---------------------------||-||----------------------------------|
||o-------------------------o||-||o---------------------------------|
||---------------------------||-||----------------------------------|
||---------------------------||-||----------------------------------|
||o-----------------6---5---o||-||o---------------------------------|
||--4-4-4-4-4-4-4-4---7---6--||-||--3-3-3-3-4-4-4-4-3-3-3-3-4-4-4-4-|


  PM-------------------------------
  S S S S S S S S S S S S S S S S
|---------------------------------|
|---------------------------------|
|---------------------------------|
|---------------------------------|
|---------------------------------|
|-6-6-6-6-7-7-7-7-6-6-6-6-7-7-7-7-|


                                    F#5
 -------------------------------------------------|
  S S S S S S S S S S S S S S S S   S S S S S S S S Q  Q
|---------------------------------|-------------------------||
|---------------------------------|------------------------o||
|---------------------------------|-------------------------||
|---------------------------------|-------------------------||
|---------------------------------|-4---------------4--4---o||
|-3-3-3-3-4-4-4-4-3-3-3-3-4-4-4-4-|-2-2-2-2-2-2-2-2-2--2----||


   Verse
    N.C.
    PM------------|                 PM----------------------------|
    S S S S S S S S E E E E  8x     S S S S S S S S S S S S S S S S
||---------------------------||-||-----------------------------------|
||o-------------------------o||-||o----------------------------------|
||---------------------------||-||-----------------------------------|
||---------------------------||-||-----------------------------------|
||o-----------------6---5---o||-||o----------------------------------|
||--4-4-4-4-4-4-4-4---7---6--||-||--3-3-3-3-4-4-4-4-3-3-3-3-4-4-4-4--|


  PM-------------------------------
  S S S S S S S S S S S S S S S S
|---------------------------------|
|---------------------------------|
|---------------------------------|
|---------------------------------|
|---------------------------------|
|-6-6-6-6-7-7-7-7-6-6-6-6-7-7-7-7-|


                                    F#5
 -------------------------------------------------|
  S S S S S S S S S S S S S S S S   S S S S S S S S Q  Q
|---------------------------------|-------------------------||
|---------------------------------|------------------------o||
|---------------------------------|-------------------------||
|---------------------------------|-------------------------||
|---------------------------------|-4---------------4--4---o||
|-3-3-3-3-4-4-4-4-3-3-3-3-4-4-4-4-|-2-2-2-2-2-2-2-2-2--2----||


   Interlude/Solo (Rozz)
    Q.=96
    N.C.
   6/8
    PM----------------------------------------------|
    S S S S S S S S S S S S   S S S S S S S S S S S S
||--------------------------|-------------------------|
||o-------------------------|-------------------------|
||--------------------------|-------------------------|
||--------------------------|-------------------------|
||o-------------------------|-------------------------|
||--1-1-1-1-1-1-1-1-1-1-1-1-|-0-0-0-0-0-0-0-0-0-0-0-0-|


  PM----------------------------------------------|
  S S S S S S S S S S S S   S S S S S S S S S S S S
|-------------------------|-------------------------|
|-------------------------|-------------------------|
|-------------------------|-------------------------|
|-------------------------|-------------------------|
|-------------------------|-------------------------|
|-3-3-3-3-3-3-3-3-3-3-3-3-|-2-2-2-2-2-2-2-2-2-2-2-2-|


  PM----------------------------------------------|
  S S S S S S S S S S S S   S S S S S S S S S S S S
|-------------------------|-------------------------|
|-------------------------|-------------------------|
|-------------------------|-------------------------|
|-------------------------|-------------------------|
|-1-1-1-1-1-1-1-1-1-1-1-1-|-------------------------|
|-------------------------|-1-1-1-1-1-1-1-1-1-1-1-1-|


  PM----------------------------------------------|
  S S S S S S S S S S S S   S S S S S S S S S S S S
|-------------------------|--------------------------||
|-------------------------|-------------------------o||
|-------------------------|--------------------------||
|-------------------------|--------------------------||
|-------------------------|-------------------------o||
|-0-0-0-0-0-0-0-0-0-0-0-0-|-0-0-0-0-0-0-0-0-0-0-0-0--||


  Gtr II
   PM-----------------------------------------------------------------------|
   S    S  S  S  S  S  S  S  S  S  S S    S    S  S  S  S  S  S  S  S  S  S S
|--------------------------------------|--------------------------------------|
|--------------------------------------|--------------------------------------|
|--------------------------------------|--------------------------------------|
|--------------------------------------|--------------------------------------|
|--------------------------------------|--------------------------------------|
|--1----1--1--1--1--1--1--1--1--1--1-1-|--0----0--0--0--0--0--0--0--0--0--0-0-|
|
| Gtr I
|  \1/                                    \1/
|       ~~~~~~~~~~~~~~~~~~~~~~~~~~~~~          ~~~~~~~~~~~~~~~~~~~~~~~~~~~~~
|  S    S  S  S  S  S  S  S  S  S  S S    S    S  S  S  S  S  S  S  S  S  S S
|-17p==14h17p14h17p14h17p14h17p14h17---|-17p==14h17p14h17p14h17p14h17p14h17---|
|--------------------------------------|--------------------------------------|
|--------------------------------------|--------------------------------------|
|--------------------------------------|--------------------------------------|
|--------------------------------------|--------------------------------------|
|--------------------------------------|--------------------------------------|


   PM-----------------------------------------------------------------|
   S    S  S  S   S  S  S    S  S  S   S  S    S  S S S S S S S S S S S
|-------------------------------------------|---------------------------|
|-------------------------------------------|---------------------------|
|-------------------------------------------|---------------------------|
|-------------------------------------------|---------------------------|
|-------------------------------------------|---------------------------|
|--3----3--3--3---3--3--3----3--3--3---3--3-|--2--2-2-2-2-2-2-2-2-2-2-2-|
|
|  \1/                  \1/
|       ~~~~~~~~~~~~~        ~~~~~~~~~~~~~     ~~~
|  S    S  S  S  +S  S  S    S  S  S  +S  S    H.
|-15p==12h15p12-(12)---15p==12h15p12-(12)---|---------------------------|
|-------------------------------------------|---------------------------|
|-------------------------------------------|-16------------------------|
|-------------------------------------------|---------------------------|
|-------------------------------------------|---------------------------|
|-------------------------------------------|---------------------------|


   PM------------------------------------
   S    S  S  S  S S  S    S  S  S  S S
|---------------------------------------|
|---------------------------------------|
|---------------------------------------|
|---------------------------------------|
|--1----1--1--1--1-1--1----1--1--1--1-1-|
|---------------------------------------|
|
|  \1/                \1/
|  ~~~~~~~~~~~~~~~~   ~~~~~~~~~~~~~~~~
|  S    S  S  S  S S  S    S  S  S  S S
|---------------------------------------|
|-15p==13h15p12------15p==13h15p12------|
|---------------14-----------------14---|
|---------------------------------------|
|---------------------------------------|
|---------------------------------------|


 -------------------------------------|
   S    S  S  S  S S  S    S  S  S  S S
|---------------------------------------|
|---------------------------------------|
|---------------------------------------|
|---------------------------------------|
|---------------------------------------|
|--1----1--1--1--1-1--1----1--1--1--1-1-|
|
|  \1/                \1/
|  ~~~~~~~~~~~~~~~~   ~~~~~~~~~~~~~~~~
|  S    S  S  S  S S  S    S  S  S  S S
|---------------------------------------|
|-15p==13h15p12------15p==13h15p12------|
|---------------14-----------------14---|
|---------------------------------------|
|---------------------------------------|
|---------------------------------------|


    PM---------------------------------------------------------------|
    S      S S S S S    S   S S S S S     S  S S S S S S S   S   S S  S
|-------------------------------------|---------------------------------|
|-------------------------------------|---------------------------------|
|-------------------------------------|---------------------------------|
|-------------------------------------|---------------------------------|
|-------------------------------------|---------------------------------|
|---0------0-0-0-0-0----0---0-0-0-0-0-|---0--0-0-0-0-0-0-0---0---0-0--0-|
|
|                       ~~~~~~~~~~~~~~~~~~~~~~~~~~~~~~~~~~~~~~~~~
|   Q.                 +Q.               +H                 +E.       S
|-------------------------------------|------------------------------12-|
|-[13]b16============([13])-----------|-(13)---------------(13)r--------|
|-------------------------------------|---------------------------------|
|-------------------------------------|---------------------------------|
|-------------------------------------|---------------------------------|
|-------------------------------------|---------------------------------|


   PM----------------------------------------------------------------
   S    S     S    S     S    S     S    S     S    S     S    S
|-------------------------------------------------------------------|
|-------------------------------------------------------------------|
|-------------------------------------------------------------------|
|-------------------------------------------------------------------|
|-------------------------------------------------------------------|
|--1----1-----1----1-----1----1-----1----1-----1----1-----1----1----|
|
|                                T
|  |--------6---------|  |--------6---------|  |--------6---------|
|  S  S    S  S  S    S  S  S    S  S  S    S  S  S    S  S  S    S
|-15p12h==15p12h15p==12h15p12---20-12h15p==12h15p12h==15p12h15p==12-|
|-------------------------------------------------------------------|
|-------------------------------------------------------------------|
|-------------------------------------------------------------------|
|-------------------------------------------------------------------|
|-------------------------------------------------------------------|


 --------------------------------------------------------------|
   S    S     S    S     S    S     S    S     S    S     S    S
|--------------------------------------------------------------------|
|--------------------------------------------------------------------|
|--------------------------------------------------------------------|
|--------------------------------------------------------------------|
|--------------------------------------------------------------------|
|--0----0-----0----0-----0----0-----0----0-----0----0-----0----0-----|
|
|                                T
|  |--------6---------|  |--------6---------|  |--------6---------|
|  S  S    S  S  S    S  S  S    S  S  S    S  S  S    S  S  S    S
|--------------------------------------------------------------------|
|-15p12h==15p12h15p==12h15p12---20-12h15p==12h15p12h==15p12h15p==12--|
|--------------------------------------------------------------------|
|--------------------------------------------------------------------|
|--------------------------------------------------------------------|
|--------------------------------------------------------------------|


   PM----------------------------------------------------------------
   S    S     S    S     S    S     S    S     S    S     S    S
|-------------------------------------------------------------------|
|-------------------------------------------------------------------|
|-------------------------------------------------------------------|
|-------------------------------------------------------------------|
|-------------------------------------------------------------------|
|--3----3-----3----3-----3----3-----3----3-----3----3-----3----3----|
|
|                                T
|  |--------6---------|  |--------6---------|  |--------6---------|
|  S  S    S  S  S    S  S  S    S  S  S    S  S  S    S  S  S    S
|-------------------------------------------------------------------|
|-------------------------------------------------------------------|
|-14p12h==14p12h14p==12-14p12---19-12h14p==12-14p12h==14p12h14p==12-|
|-------------------------------------------------------------------|
|-------------------------------------------------------------------|
|-------------------------------------------------------------------|


 -------------------------|
   S  S S S S S S S S S S S
|---------------------------|
|---------------------------|
|---------------------------|
|---------------------------|
|---------------------------|
|--2--2-2-2-2-2-2-2-2-2-2-2-|
|
|  ~~~
|  H.
|---------------------------|
|---------------------------|
|---------------------------|
|-14------------------------|
|---------------------------|
|---------------------------|


   PM------------------------------------
   S    S  S  S  S S  S    S  S  S  S S
|---------------------------------------|
|---------------------------------------|
|---------------------------------------|
|---------------------------------------|
|--1----1--1--1--1-1--1----1--1--1--1-1-|
|---------------------------------------|
|
|  \1/                \1/
|  ~~~~~~~~~~~~~~~~   ~~~~~~~~~~~~~~~~
|  S    S  S  S  S S  S    S  S  S  S S
|---------------------------------------|
|-15p==13h15p12------15p==13h15p12------|
|---------------14-----------------14---|
|---------------------------------------|
|---------------------------------------|
|---------------------------------------|


 --------------------------------------------------------|
   S    S    S    S    S    S    S    S    S    S    S   S
|----------------------------------------------------------|
|----------------------------------------------------------|
|----------------------------------------------------------|
|----------------------------------------------------------|
|----------------------------------------------------------|
|--1----1----1----1----1----1----1----1----1----1----1---1-|
|
|  \1/  \1/  \1/  \1/  \1/  \1/  \1/  \1/  \1/  \1/  \1/
|  ~~~~~~~~~~~~~~~~~~~~~~~~~~~~~~~~~~~~~~~~~~~~~~~~~~~~~~
|  S    S    S    S    S    S    S    S    S    S    S   S
|----------------------------------------------------------|
|-15p==13h==15p==12h==15p==12---15p==13h==15p==12h==15-----|
|----------------------------------------------------------|
|----------------------------------------------------------|
|----------------------------------------------------------|
|----------------------------------------------------------|


  PM-------------------------------------------------|
  S  S S S S S S S S S S S    S  S S S S S S S S S S S
|--------------------------|---------------------------||
|--------------------------|---------------------------||
|--------------------------|---------------------------||
|--------------------------|---------------------------||
|--------------------------|---------------------------||
|-0--0-0-0-0-0-0-0-0-0-0-0-|--0--0-0-0-0-0-0-0-0-0-0-0-||
|
|                             \2
| H.                         +H.
|--------------------------|---------------------------||
|--------------------------|---------------------------||
|--------------------------|---------------------------||
|--------------------------|---------------------------||
|--------------------------|---------------------------||
|-0------------------------|-(0)-----------------------||


 Solo (Schuldiner)
    PM----------------------------------------------------------|
    S  S S S S S S S  S S  S S   S    S    S S S S  S S  S S  S S
|------------------------------|-----------------------------------|
|------------------------------|-----------------------------------|
|------------------------------|-----------------------------------|
|------------------------------|-----------------------------------|
|---2--2-2-2-2-2-2-2--2-2--2-2-|-----------------------------------|
|------------------------------|-3----3----3-3-3-3--3-3--3-3--3-3--|
|
|   ~~~~         PM-------|                PM----------------|
|                                |--3---|
|   Q.           E    E    E     S  S   S  E   E    E    E    E
|------------------------------|-----------------------------------|
|-[11]-------------------------|-----------------------------------|
|------------------------------|-9h11p==9------9---11---12---11----|
|----------------9---11---12---|----------12-----------------------|
|------------------------------|-----------------------------------|
|------------------------------|-----------------------------------|


  PM---------------------------------------------------|
  S S  S S S S  S S  S S S S    S S S S S S S S  S S S S
|----------------------------|---------------------------|
|----------------------------|---------------------------|
|----------------------------|---------------------------|
|----------------------------|---------------------------|
|-1-1--1-1-1-1--1-1--1-1-1-1-|---------------------------|
|----------------------------|--2-2-2-2-2-2-2-2--2-2-2-2-|
|
| PM---------------------|      ~~               TP
| E    E   E    E    E   E      H                Q
|----------------------------|------------------14-------|
|----------------------------|---------------------------|
|-9---11---9-----------------|---------------------------|
|--------------12---11---9---|-11------------------------|
|----------------------------|---------------------------|
|----------------------------|---------------------------|


   PM----------------------------------------------------------------------
   S     S     S     S     S     S     S     S     S     S     S     S
|-------------------------------------------------------------------------|
|-------------------------------------------------------------------------|
|-------------------------------------------------------------------------|
|-------------------------------------------------------------------------|
|--2-----2-----2-----2-----2-----2-----2-----2-----2-----2-----2-----2----|
|-------------------------------------------------------------------------|
|
|  T  T  T  T  T  T  T  T  T  T  T  T  T  T  T  T  T  T  T  T  T  T  T  T
|-15-14-12-15-14-12----12-14-15-14-12-15-12-14-15-14-12-14-15-12-14-15-12-|
|-------------------15----------------------------------------------------|
|-------------------------------------------------------------------------|
|-------------------------------------------------------------------------|
|-------------------------------------------------------------------------|
|-------------------------------------------------------------------------|


 -------------------------------------------------------------------|
   S     S     S     S     S     S     S     S     S     S     S     S
|--------------------------------------------------------------------------|
|--------------------------------------------------------------------------|
|--------------------------------------------------------------------------|
|--------------------------------------------------------------------------|
|--------------------------------------------------------------------------|
|--3-----3-----3-----3-----3-----3-----3-----3-----3-----3-----3-----3-----|
|
|  T  T  T  T  T  T  T  T  T  T  T  T  T  T  T  T  T  T  T  T  T  T  T  T
|-15-12-15-12----------12-14-12----12--------------------------------------|
|-------------15-13-15----------15----15-13-15-13-12----12-13-12-------12--|
|----------------------------------------------------14----------14-12-----|
|--------------------------------------------------------------------------|
|--------------------------------------------------------------------------|
|--------------------------------------------------------------------------|


   PM----------------------------------------------------------------------
   S     S     S     S     S     S     S     S     S     S     S     S
|-------------------------------------------------------------------------|
|-------------------------------------------------------------------------|
|-------------------------------------------------------------------------|
|-------------------------------------------------------------------------|
|--1-----1-----1-----1-----1-----1-----1-----1-----1-----1-----1-----1----|
|-------------------------------------------------------------------------|
|
|  T  T  T  T  T  T  T  T  T  T  T  T  T  T  T  T  T  T  T  T  T  T  T  T
|-------------------------------------------------------------------------|
|-13-12-10-------12-10----------10----------------------------------------|
|----------12-10-------12-10-------12-10-------10-------------------------|
|----------------------------14----------14-12----14-12----14-12----------|
|-------------------------------------------------------14-------14-12----|
|----------------------------------------------------------------------15-|


 -------------------------|
   S  S S S S S S S S S S S
|---------------------------|
|---------------------------|
|---------------------------|
|---------------------------|
|---------------------------|
|--2--2-2-2-2-2-2-2-2-2-2-2-|
|
|  ~~~
|  H.
|---------------------------|
|---------------------------|
|---------------------------|
|---------------------------|
|---------------------------|
|-14------------------------|


   PM----------------------------
   S S S S S S S S   S  S  S  S
|-------------------------------|
|-------------------------------|
|-------------------------------|
|-------------------------------|
|--2-2-2-2-2-2-2-2---2--2--2--2-|
|-------------------------------|
|
|  ~~~~~~~~~~~~~~~~~~~~~
|  H                +E     S  S
|-------------------------------|
|-------------------------------|
|-16---------------(16)---16h17-|
|-------------------------------|
|-------------------------------|
|-------------------------------|


 --------------------------------------------------------------|
   S    S     S    S     S    S     S    S     S    S     S    S
|-------------------------------------------------------------------|
|-------------------------------------------------------------------|
|-------------------------------------------------------------------|
|-------------------------------------------------------------------|
|-------------------------------------------------------------------|
|--3----3-----3----3-----3----3-----3----3-----3----3-----3----3----|
|
|  |--------6---------|  |--------6---------|  |--------6---------|
|  S  S    S  S  S    S  S  S    S  S  S    S  S  S    S  S  S    S
|-------------------------------------------------------------------|
|-------------------------------------------------------------------|
|-16-14--------------------14---16-14------------14---16-17-16---17-|
|---------16-14------14-16------------16---14-16--------------------|
|---------------16--------------------------------------------------|
|-------------------------------------------------------------------|


   PM----------------------------------------------------------------
   S    S     S    S     S    S     S    S     S    S     S    S
|-------------------------------------------------------------------|
|-------------------------------------------------------------------|
|-------------------------------------------------------------------|
|-------------------------------------------------------------------|
|--1----1-----1----1-----1----1-----1----1-----1----1-----1----1----|
|-------------------------------------------------------------------|
|
|  |--------6---------|  |--------6---------|  |--------6---------|
|  S  S    S  S  S    S  S  S    S  S  S    S  S  S    S  S  S    S
|---------------------------------------------14-15---17-15-14---15-|
|-15------14-15-17------14-15---17-15-17---15-----------------------|
|----17--------------17---------------------------------------------|
|-------------------------------------------------------------------|
|-------------------------------------------------------------------|
|-------------------------------------------------------------------|


 --------------------------------------------------------------|
   S    S     S    S     S    S     S    S     S    S     S    S
|--------------------------------------------------------------------|
|--------------------------------------------------------------------|
|--------------------------------------------------------------------|
|--------------------------------------------------------------------|
|--------------------------------------------------------------------|
|--2----2-----2----2-----2----2-----2----2-----2----2-----2----2-----|
|
|  |--------6---------|  |--------6---------|  |--------6---------|
|  S  S    S  S  S    S  S  S    S  S  S    S  S  S    S  S  S    S
|-14----------------------------14-15-14---------14---15-17----------|
|----17---15-14-15---17-15-17--------------15-17------------17---15--|
|--------------------------------------------------------------------|
|--------------------------------------------------------------------|
|--------------------------------------------------------------------|
|--------------------------------------------------------------------|


   PM------------------------------------------------------------------|
   S    S S S S S  S     S S S   S  S    S    S S S S S  S    S S S  S  S
|-------------------------------------|-----------------------------------|
|-------------------------------------|-----------------------------------|
|-------------------------------------|-----------------------------------|
|-------------------------------------|-----------------------------------|
|--2----2-2-2-2-2--2-----2-2-2---2--2-|-----------------------------------|
|-------------------------------------|--3----3-3-3-3-3--3----3-3-3--3--3-|
|
|                  ~~~~~~~~~~~~~~~~~~                    ~~~~~
|  Q.              Q            +E       Q.              Q           S  S
|-17b19-----------17b19========(17)r==|=17b19-----------17b19-------17p14-|
|-------------------------------------|-----------------------------------|
|-------------------------------------|-----------------------------------|
|-------------------------------------|-----------------------------------|
|-------------------------------------|-----------------------------------|
|-------------------------------------|-----------------------------------|


   PM----------------------------------------------------------------
   S    S     S    S     S    S     S    S     S    S     S    S
|-------------------------------------------------------------------|
|-------------------------------------------------------------------|
|-------------------------------------------------------------------|
|-------------------------------------------------------------------|
|--1----1-----1----1-----1----1-----1----1-----1----1-----1----1----|
|-------------------------------------------------------------------|
|
|  |--------6---------|  |--------6---------|  |--------6---------|
|  S  S    S  S  S    S  S  S    S  S  S    S  S  S    S  S  S    S
|-18-17---15------------18-17---15---------15-18-17---15------------|
|------------18-16---15------------18-16-----------------16-15------|
|----------------------------------------------------------------14-|
|-------------------------------------------------------------------|
|-------------------------------------------------------------------|
|-------------------------------------------------------------------|


                D.S. al Fine
 ---------------------------|
   S S  S S S S  S S  S S S S
|-----------------------------*|
|-----------------------------*|
|-----------------------------*|
|-----------------------------*|
|-----------------------------*|
|--2-2--2-2-2-2--2-2--2-2-2-2-*|
|
|  E    E   E    E    E   E
|-----------------------------*|
|-12--------------------------*|
|------12-------11------------*|
|-----------9--------12-------*|
|-------------------------9---*|
|-----------------------------*|



Duration Legend
---------------
W - whole; H - half; Q - quarter; E - 8th; S - 16th; T - 32nd; X - 64th; a - acciaccatura
+ - note tied to previous; . - note dotted; .. - note double dotted
Uncapitalized letters represent notes that are staccato (1/2 duration)
Irregular groupings are notated above the duration line
Duration letters will always appear directly above the note/fret number it represents the
duration for.  Duration letters with no fret number below them represent rests.  Multi-
bar rests are notated in the form Wxn, where n is the number of bars to rest for.  Low
melody durations appear below the staff

Tablature Legend
----------------
 h   - hammer-on
 p   - pull-off
 b   - bend
 pb  - pre-bend
 r   - bend release (if no number after the r, then release immediately)
 /\  - slide into or out of (from/to "nowhere")
 s   - legato slide
 S   - shift slide
 - natural harmonic
[n]  - artificial harmonic
n(n) - tapped harmonic
 ~   - vibrato
 tr  - trill
 T   - tap
 TP  - trem. picking
 PM  - palm muting
\n/  - tremolo bar dip; n = amount to dip
 \n  - tremolo bar down
 n/  - tremolo bar up
/n\  - tremolo bar inverted dip
 =   - hold bend; also acts as connecting device for hammers/pulls
 <> - volume swell (louder/softer)
 x   - on rhythm slash represents muted slash
 o   - on rhythm slash represents single note slash

Misc Legend
-----------
 |  - bar
||  - double bar
||o - repeat start
o|| - repeat end
*|  - double bar (ending)
 :  - bar (freetime)
 $  - Segno
 &  - Coda
Tempo markers -  = BPM(8/16=s8/s16), where s8 = swing 8ths, s16 = swing 16ths

Tap to rate this tab
# A B C D E F G H I J K L M N O P Q R S T U V W X Y Z