Song name
# A B C D E F G H I J K L M N O P Q R S T U V W X Y Z

Death - Zero Tolerance tab

Band:  Death
Album: Symbolic
Song:  Zero Tolerance

Copyright (c)  Roadrunner Records 1995
Version 1.0 -  29.02.2008

Transcribed By: evilkin
Email:          N/A

.  - palm mute           /  - slide up to
\  - slide down to       ~  - vibrato
h  - hammer on           b  - Bend
p  - pull off            Suffixes for bend
t  - tap                 f  - full bend    h - half bend
ph - pinched harmonic    q  - quarter bend t - tap bend
*  - see comment         ^  - Hold bend    r release bend
x  - Stuccatto           ~  - vibrato bend
,  - slight palm mute    () - ghost note, sustained note
"  - tremolo note        <> - Trill

Tuning D G C F A D

*it's hard to add triplets, so listen to the song
 and you'll get the hang of it


RIFF A
|----------------------------------------------------------------|
|----------------------------------------------------------------|
|----------------------------------------------------------------|
|----------------4-----5-------------------------4-----5---------|
|--2-----3-------2-----3---5-------2-----3-------2-----3---5-----|
|0---0---1-----------------3-----0---0---1-----------------3-----|

 ----------------------------------------------------------------|
 ----------------------------------------------------------------|
 ----------------4-----5-------------------------4-----5---------|
 --2-----3-------2-----3---5-------2-----3-------2-----3---5-----|
 0---0---1-------2-----3---3-----0---0---1-------2-----3---3-----|
 ----------------------------------------------------------------|

RIFF B
|----------------------------------------------------------------|
|----------------------------------------------------------------|
|----------------------------------------------------------------|
|5---------------------------------------------------------------|
|3---------------------------------------------------------------|
|----------------------------------------------------------------|

 ----------------------------------------------------------------|
 ----------------------------------------------------------------|
 ----------------------------------------------------------------|
 4---------------------------------------------------------------|
 2---------------------------------------------------------------|
 ----------------------------------------------------------------|

RIFF C
|----------------------------------------------------------------|
|----------------------------------------------------------------|
|----------------------------------------------------------9-----|
|----------------------9-1012--------------------------9-10------|
|2-2-2-2-----2-2-2-2-------------6-6-6-6-----6-6-6-6-------------|
|0-0-0-0-----0-0-0-0-------------4-4-4-4-----4-4-4-4-------------|
 . . .       . . .     . .       . . .       . . .     . .

RIFF D
|----------------------------------------------------------------|
|----------------------------------------------------------------|
|----------------10----------------------------------------------|
|--------------------------------9-------10------7-------9-------|
|2---------------8-----------------------------------------------|
|0-------------------------------7-------8-------5-------7-------|

 ----------------------------------------------------------------|
 ----------------------------------------------------------------|
 ----------------10----------7-----------------------------------|
 ----------------------------------------------------------------|
 2---------------8-----------5---2-----2-----2-----2-----2---2---|
 0---------------------------------1-1---1-1---1-1---1-1---1---1-|
                                   . .   . .   . .   . .   .   .
RIFF E
|----------------------------------------------------------------|
|----------------------------------------------------------------|
|----------------------------------------------------------------|
|----------------------------------------------------------------|
|2---------------------------------------------------------------|
|0-----------------------------------------------4---3-----------|
                                                 .
 ----------------------------------------------------------------|
 ----------------------------------------------------------------|
 ------------------------5---------------------------------------|
 ----------------2---3-------------------------------------------|
 3---------------------------------------------------------------|
 1-----------------------------------------------3---4-----------|
                 .   .                           .

RIFF F.1  TRIPLETS! *
|----------------------------------------------------------------|
|----------------------------------------------------------------|
|----------------------------------------------------------------|
|----------------------------------------------------------------|
|0-0-0-0-0-0-0-0-0-0-0-0-0-0-0-0-0-0-0-0-0-0-0-0-0-0-0-0-0-0-0-0-|
|----------------------------------------------------------------|
 . . . . . . . . . . . . . . . . . . . . . . . . . . . . . . . .

 ----------------------------------------------------------------|
 ----------------------------------------------------------------|
 ----------------------------------------------------------------|
 ----------------------------------------------------------------|
 0-0-0-0-0-0-0-0-0-0-0-0-0-0-0-0-0-0-0-0-0-0-0-0-0-0-0-0-0-0-0-0-|
 ----------------------------------------------------------------|
 . . . . . . . . . . . . . . . . . . . . . . . . . . . . . . . .

RIFF F.2  TRIPLETS! *
|----------------------------------------------------------------|
|----------------------------------------------------------------|
|----------------------------------------------------------------|
|----------------------------------------------------------------|
|0-0-0-0-0-0-0-0-0-0-0-0-0-0-0-0-0-0-0-0-0-0-0-0-0-0-0-0-0-0-0-0-|
|----------------------------------------------------------------|
 . . . . . . . . . . . . . . . . . . . . . . . . . . . . . . . .

 ----------------------------------------------------------------|
 ----------------------------------------------------------------|
 ----------------------------------------------------------------|
 ----------------------------------------------------------------|
 0-0-0-0-0-0-0-0-0-0-0-0-0-0-0-0-0-0-0-0-0-0-0-0-0-0-0-0-0-0-0-0-|
 ----------------------------------------------------------------|
 . . . . . . . . . . . . . . . . . . . . . . . . . . . . . . . .

 ----------------------------------------------------------------|
 ----------------------------------------------------------------|
 ----------------------------------------------------------------|
 ----------------------------------------------------------------|
 ----------------------------------------------------------------|
 4-4-4-4-4-4-4-4-4-4-4-4-4-4-4-4-4-4-4-4-4-4-4-4-4-4-4-4-4-4-4-4-|
 . . . . . . . . . . . . . . . . . . . . . . . . . . . . . . . .

 ----------------------------------------------------------------|
 ----------------------------------------------------------------|
 ----------------------------------------------------------------|
 ----------------------------------------------------------------|
 ----------------------------------------------------------------|
 0-0-0-0-0-0-0-0-0-0-0-0-0-0-0-0-0-0-0-0-0-0-0-0-0-0-0-0-0-0-0-0-|
 . . . . . . . . . . . . . . . . . . . . . . . . . . . . . . . .

RIFF G *
|-----------------------------------------------------------------|
|-----------------------------------------------------------------|
|TRIPLETS-----------------------------TRIPLETS---------TRIPLETS---|
|-----------------------------------------------------------------|
|----4-----------2-------5-------4---------------4----------------|
|222-2-----------0-------3-------2-222222222222222-22222222222222-|
 ...                             . ............... ..............

 ----------------------------------------------------------------|
 ----------------------------------------------------------------|
 TRIPLETS-----------------------------TRIPLETS-------------------|
 ------------------------7---------------------------6---7-------|
 ----4-----------2-------5-------5-------------------4---5---5---|
 222-2-----------0---------------3-333333333333333333--------3---|
 ...                             . ..................

SONG STRUCTURE:

RIFF A   2x
RIFF B   2x
RIFF C   4x
RIFF D   2x
RIFF E   4x
RIFF F.1 1x
RIFF F.2 4x
RIFF G   3x
RIFF A   2x
RIFF B   2x
RIFF C   4x
RIFF D   2x
Tap to rate this tab
 
# A B C D E F G H I J K L M N O P Q R S T U V W X Y Z