Song name
# A B C D E F G H I J K L M N O P Q R S T U V W X Y Z

Death - Flesh And The Power It Holds tab

#----------------------------------PLEASE NOTE---------------------------------#
#This file is the author's own work and represents their interpretation of the #
#song. You may only use this file for private study, scholarship, or research. #
#------------------------------------------------------------------------------#

FLESH AND THE POWER IT HOLDS
As recorded by Death
(From the 1998 Album THE SOUND OF PERSEVERANCE)

Transcribed by livingzombie
	

Words and Music by Chuck Schuldiner

Gtr I (D G C F A D) - 'Untitled'
Gtr II (D G C F A D) - 'Untitled'
Gtr III (D G C F A D) - 'Untitled'
Gtr IV (D G C F A D) - 'Untitled'

   Intro
    Q=91
    N.C.
   4/4
    Gtr I
                      ~~~                      ~~
    E  E  E  a  E  E  Q.     E  E  E  a  E  E  E  S  S  S  S
||-------------------------|---------------------------------|
||o------12-12s18----------|------12-12s15-------------24----|
||----11----------17-------|---11----------14-------23----23-|
||--9----------------15----|-9----------------12-21----------|
||o------------------------|---------------------------------|
||-------------------------|---------------------------------|
|
|   Gtr II
|                     ~~~                      ~~
|   E  E  E  a  E  E  Q.     E  E  E  a  E  E  E  S  S  S  S
||-------------------------|---------------------------------|
||o------12-12s18----------|------12-12s15-------------12----|
||----11----------17-------|---11----------14-------11----11-|
||--9----------------15----|-9----------------12--9----------|
||o------------------------|---------------------------------|
||-------------------------|---------------------------------|


                    ~~~
  E  E  E  a  E  E  Q.      S  S  S  S  S  S  S  S  S  S  S  S  S  S  S  S     3x
|------------------------|-----------------------------------------------------||
|------12-12s18----------|-------15-18-------------17-20-------------22-------o||
|---11----------17-------|----14-------17-------16-------19-------21----21-----||
|-9----------------15----|-12-------------15-14-------------17-19--------------||
|------------------------|----------------------------------------------------o||
|------------------------|-----------------------------------------------------||
|
|                   ~~~
| E  E  E  a  E  E  Q.      S  S  S  S  S  S  S  S  S  S  S  S  S  S  S  S     3x
|------------------------|-------17-20-------------19-22-------------24--------||
|------12-12s18----------|----17-------20-------19-------22-------24----24----o||
|---11----------17-------|-14-------------17-16-------------19-21--------------||
|-9----------------15----|-----------------------------------------------------||
|------------------------|----------------------------------------------------o||
|------------------------|-----------------------------------------------------||


    Q.=59
    A5
   6/8
           ~~
    E  E E Q.      E   E E  E E  E
||--------------|------------------|
||o-------------|------------------|
||--------------|------------------|
||-----7---7----|-----10---10p9----|
||o-0----0------|--0-----0------10-|
||--------------|------------------|
|
|   H.            +H.
||--------------|------------------|
||o-------------|------------------|
||--------------|------------------|
||--7-----------|-(7)--------------|
||o-7-----------|-(7)--------------|
||--5-----------|-(5)--------------|


           ~~~
  E   E E  Q.      E   E E S +S   S  +S  E
|---------------|---------------------------||
|---------------|--------------------------o||
|---------------|---------------------------||
|----12---12----|-----10---9-(9)s10-(10)s9--||
|-0-----0-------|--0-----0-----------------o||
|---------------|---------------------------||
|
| H.              +H.
|---------------|---------------------------||
|---------------|--------------------------o||
|---------------|---------------------------||
|-7-------------|-(7)-----------------------||
|-7-------------|-(7)----------------------o||
|-5-------------|-(5)-----------------------||


    A5               E5
    Gtr I
              ~~~
     E   E E  Q.      E   E E  E  E  E
||-----------------|-------------------|
||o----------------|-------------------|
||-----------------|-------------------|
||-------7----7----|-----10---10p=9----|
||o--0-----0-------|--0-----0-------10-|
||-----------------|-------------------|
|
|   Gtr II
|             ~~~
|    E   E E  Q.      E   E E  E  E  E
||-----------------|-------------------|
||o----------------|-------------------|
||------14---14----|-----17---17p16----|
||-----------------|----------------17-|
||o--0-----0-------|--0-----0----------|
||-----------------|-------------------|
|
|   Gtr III
|    H.               H.
||-----------------|-------------------|
||o----------------|-------------------|
||--/9-------------|-\4----------------|
||--/7-------------|-\2----------------|
||o----------------|-------------------|
||-----------------|-------------------|


  F5                C5       D5
             ~~~
    E   E E  Q.      E   E E  S   +S   S  +S   E
|-----------------|-------------------------------||
|-----------------|------------------------------o||
|-----------------|-------------------------------||
|------12---12----|-----10----9---(9)s10-(10)s=9--||
|---0-----0-------|--0-----0---------------------o||
|-----------------|-------------------------------||
|
|            ~~~
|   E   E E  Q.      E   E E  S   +S   S  +S   E
|-----------------|-------------------------------||
|-----------------|------------------------------o||
|------19---19----|-----17---16--(16)s17-(17)s16--||
|-----------------|-------------------------------||
|---0-----0-------|--0-----0---------------------o||
|-----------------|-------------------------------||
|
|   H.               Q.       Q.
|-----------------|-------------------------------||
|-----------------|------------------------------o||
|-----------------|-------------------------------||
|-/10-------------|-\5-------/7-------------------||
|--/8-------------|-\3-------/5------------------o||
|-----------------|-------------------------------||


  Q=120
  N.C.
 4/4               2/4
  Gtr I
  PM|   PM    PM    PM
                         |-3--|
  E E E E E E E E   E  E S  S S  E
|-----------------|----------------|
|-----------------|----------------|
|-----9---9-------|----------------|
|---7-------7---7-|---10-9h10p9----|
|-0-----0-----0---|-0-----------10-|
|-----------------|----------------|


 4/4
  PM|     PM      PM     PM
                              |-3--|
  E  E  E E  E  E E  E   E  E S  S S  E  E E  E E
|----------------------|---------------------------|
|----------------------|----------------12---------|
|------12---12---------|---10-9h10p9---------12----|
|---10---------10---10-|-------------10----9----9--|
|-0-------0-------0----|-0-------------------------|
|----------------------|---------------------------|


                     2/4
  Gtr I
  PM|     PM    PM    PM
                            |--3--|
  E E   E E E E E E   E  E  S  S  S  E
|-------------------|------------------|
|-------------------|------------------|
|-------9---9-------|------------------|
|---7---------7---7-|---10--9h10p=9----|
|-0-------0-----0---|-0-------------10-|
|-------------------|------------------|
|
| Gtr II
|                           |--3--|
| E H..               E  E  S  S  S  E
|-------------------|------------------|
|-------------------|---13-12h13p12----|
|-------------------|---------------12-|
|-7-----------------|------------------|
|-7-----------------|------------------|
|-5-----------------|------------------|


 4/4
  PM|     PM      PM     PM
                               |--3--|
  E  E  E E  E  E E  E   E  E  S  S  S  E  E  E  E  E
|----------------------|------------------------------|
|----------------------|------------------12----------|
|------12---12---------|---10--9h10p=9----------12----|
|---10---------10---10-|---------------10-----9-----9-|
|-0-------0-------0----|-0----------------------------|
|----------------------|------------------------------|
|
|                              |--3--|
| W                      E  E  S  S  S  E  E  E  E  E
|----------------------|------------------15----------|
|----------------------|---13-12h13p12----------15----|
|----------------------|---------------12----12----12-|
|----------------------|------------------------------|
|----------------------|------------------------------|
|----------------------|------------------------------|


   Pre-Verse
    Q=182
    $
    Gtrs I, II
      PM--| ~~     PM----|   PM|    PM  PM
    E S S E Q.   E S S   E E E E  E E E E
||---------------------|------------------|
||o--------------------|------------------|
||---------------------|------------------|
||---------------------|------------------|
||o-7-------8----7-----|---8-----10---8---|
||----0-0-0--------0-0-|-0---0-0----0---0-|


    PM--| ~~     PM----|   PM|    PM  PM
  E S S E Q.   E S S   E E E E  E E E E
|--------------------|-------------------|
|--------------------|-------------------|
|--------------------|-------------------|
|--------------------|--------------7----|
|-7-------8----7-----|---8-----10--------|
|---0-0-0--------0-0-|-0---0-0----0---0--|


  Gtrs I, II
    PM--|  ~~~    PM----|    PM|    PM   PM
  E S S E  Q.   E S S   E  E E E  E E  E E
|---------------------|--------------------|
|---------------------|--------------------|
|---------------------|--------------------|
|---------------------|--------------------|
|-7--------8----7-----|----8-----10----8---|
|---0-0-0---------0-0-|-0----0-0----0----0-|
|
| Gtr III
|   PM--|  ~~~    PM----|    PM|    PM   PM
| E S S E  Q.   E S S   E  E E E  E E  E E
|---------------------|--------------------|
|---------------------|--------------------|
|---------------------|--------------------|
|-9-------10----9-----|---10-----12---10---|
|---------------------|--------------------|
|---0-0-0---------0-0-|-0----0-0----0----0-|


                                         2/4
    PM--| ~~     PM----|   PM|    PM
  E S S E Q.   E S S   E E E E  E E E E   H
|--------------------|------------------|------|
|--------------------|------------------|------|
|--------------------|------------------|------|
|--------------------|--------------7---|------|
|-7-------8----7-----|---8-----10-------|------|
|---0-0-0--------0-0-|-0---0-0----0-----|------|
|
| W                    W                  H
|--------------------|------------------|------|
|--------------------|------------------|------|
|--------------------|------------------|------|
|--------------------|------------------|------|
|--------------------|------------------|------|
|--------------------|------------------|------|


 Verse
 4/4
    PM--| ~~     PM----|   PM|    PM  PM
  E S S E Q.   E S S   E E E E  E E E E
|--------------------|------------------|
|--------------------|------------------|
|--------------------|------------------|
|--------------------|------------------|
|-7-------8----7-----|---8-----10---8---|
|---0-0-0--------0-0-|-0---0-0----0---0-|


    PM--| ~~     PM----|   PM|    PM  PM
  E S S E Q.   E S S   E E E E  E E E E
|--------------------|-------------------|
|--------------------|-------------------|
|--------------------|-------------------|
|--------------------|--------------7----|
|-7-------8----7-----|---8-----10--------|
|---0-0-0--------0-0-|-0---0-0----0---0--|


  Gtrs I, II
    PM--|  ~~~    PM----|    PM|    PM   PM
  E S S E  Q.   E S S   E  E E E  E E  E E
|---------------------|--------------------|
|---------------------|--------------------|
|---------------------|--------------------|
|---------------------|--------------------|
|-7--------8----7-----|----8-----10----8---|
|---0-0-0---------0-0-|-0----0-0----0----0-|
|
| Gtr III
|   PM--|  ~~~    PM----|    PM|    PM   PM
| E S S E  Q.   E S S   E  E E E  E E  E E
|---------------------|--------------------|
|---------------------|--------------------|
|---------------------|--------------------|
|-9-------10----9-----|---10-----12---10---|
|---------------------|--------------------|
|---0-0-0---------0-0-|-0----0-0----0----0-|


    PM--| ~~     PM----|   PM|    PM
  E S S E Q.   E S S   E E E E  E E Q
|--------------------|-----------------|
|--------------------|-----------------|
|--------------------|-----------------|
|--------------------|--------------7--|
|-7-------8----7-----|---8-----10------|
|---0-0-0--------0-0-|-0---0-0----0----|
|
| W                    W
|--------------------|-----------------|
|--------------------|-----------------|
|--------------------|-----------------|
|--------------------|-----------------|
|--------------------|-----------------|
|--------------------|-----------------|


  Q=98
  F5          E5         F5    G5     D5
   W          W           H    H      W
|-----------|----------|------------|-------||
|-----------|----------|------------|------o||
|-----------|----------|-------7----|-------||
|-10--------|-9--------|-10----5----|-7-----||
|--8--------|-7--------|--8----5----|-5----o||
|--8--------|-7--------|--8---------|-5-----||


   Bridge
    Q=137                                      1.,2.,3.
    N.C.                      G5      G#5       E5      F5
                                               2/4
    Gtr I
                              PM----------------------------|
    E E E E E E E E   E E E E S S S S S S S S   S S S S S S S S   4x
||------------------|-------------------------|-------------------||
||o-----------------|-------------------------|------------------o||
||------------------|-------------------------|-------------------||
||--6-----6-----6---|---6---------------------|-------------------||
||o---5-----5-----5-|-----5---5-5-5---6-6-6---|-2-2-2---3-3-3----o||
||------4-----4-----|-4-----4-3-3-3---4-4-4---|-0-0-0---1-1-1-----||
|
|   Gtr II
|                             PM----------------------------|
|   E E E E E E E E   E E E E S S S S S S S S   S S S S S S S S   4x
||------------------|-------------------------|-------------------||
||o-----------------|-------------------------|------------------o||
||--8-----8-----8---|---8---------------------|-------------------||
||----7-----7-----7-|-----7-------------------|-------------------||
||o-----6-----6-----|-6-----6-5-5-5---6-6-6---|-2-2-2---3-3-3----o||
||------------------|---------3-3-3---4-4-4---|-0-0-0---1-1-1-----||


  4.
  E5      F5      B5      Bb5     F#5
 5/4
  Gtrs I, II
  PM----------------------------------
  S S S S S S S S S S S S S S S S q
|------------------------------------|
|------------------------------------|
|------------------------------------|
|-----------------4-4-4---3-3-3------|
|-2-2-2---3-3-3---2-2-2---1-1-1---4--|
|-0-0-0---1-1-1-------------------2--|


  G5      G#5     E5      F5        B5      Bb5     F#5
 4/4                               3/4
 ---------------------------------------------------|
  S S S S S S S S S S S S S S S S   S S S S S S S S q
|---------------------------------|--------------------|
|---------------------------------|--------------------|
|---------------------------------|--------------------|
|---------------------------------|-4-4-4---3-3-3------|
|-5-5-5---6-6-6---2-2-2---3-3-3---|-2-2-2---1-1-1---4--|
|-3-3-3---4-4-4---0-0-0---1-1-1---|-----------------2--|


  G5      G#5     E5      F5        B5      Bb5     F#5
 4/4                               3/4
  PM----------------------------------------------------
  S S S S S S S S S S S S S S S S   S S S S S S S S q
|---------------------------------|--------------------|
|---------------------------------|--------------------|
|---------------------------------|--------------------|
|---------------------------------|-4-4-4---3-3-3------|
|-5-5-5---6-6-6---2-2-2---3-3-3---|-2-2-2---1-1-1---4--|
|-3-3-3---4-4-4---0-0-0---1-1-1---|-----------------2--|


  G5      G#5     E5      F5        B5      Bb5     F#5
 4/4                               3/4
 -------------------------------------------------|
  S S S S S S S S S S S S S S S S   S S S S S S S S Q
|---------------------------------|---------------------|
|---------------------------------|---------------------|
|---------------------------------|---------------------|
|---------------------------------|-4-4-4---3-3-3---4---|
|-5-5-5---6-6-6---2-2-2---3-3-3---|-2-2-2---1-1-1---4---|
|-3-3-3---4-4-4---0-0-0---1-1-1---|-----------------2---|


    G5    G#5   E5      F5        B5      Bb5     F#5
   4/4                           3/4
    PM|   PM|   PM----------------------------|
    S S E S S E S S S S S S S S   S S S S S S S S Q   4x
||------------------------------|---------------------||
||o-----------------------------|--------------------o||
||------------------------------|---------------------||
||------5-----6-----------------|-4-4-4---3-3-3---4---||
||o-5-5-5-6-6-6-2-2-2---3-3-3---|-2-2-2---1-1-1---4--o||
||--3-3-3-4-4-4-0-0-0---1-1-1---|-----------------2---||


    Q=192
    C5                                  B+add6            B5
   4/4
    Gtr I
                                                                     ~
    E E E E E E E E   E E E E E E E E   E E E E E E E E   E E E Q.   Q
||------------------|-----------------|-----------------|----------------|
||o-----------------|-----------------|-----------------|----------------|
||------------------|-----------------|-----------------|----------------|
||--5-----5-5---5---|-5-----5-5---5---|-5-----5-5---5---|-4-----4----4---|
||o---3-3-----3---3-|---3-3-----3---3-|---2-2-----2---2-|---2-2----------|
||------------------|-----------------|-----------------|----------------|
|
|   Gtr II
|   W                 W                 W                 W
||------------------|-----------------|-----------------|----------------|
||o-----------------|-----------------|-----------------|----------------|
||------------------|-----------------|-----------------|----------------|
||--5---------------|-5---------------|-5---------------|-4--------------|
||o-3---------------|-3---------------|-2---------------|-2--------------|
||------------------|-----------------|-----------------|----------------|


  C5                                  B+add6            B5
  Gtr I
                                                                   ~
  E E E E E E E E   E E E E E E E E   E E E E E E E E   E E E Q.   Q
|-----------------|-----------------|-----------------|---------------|
|-----------------|-----------------|-----------------|---------------|
|-----------------|-----------------|-----------------|---------------|
|-5-----5-5---5---|-5-----5-5---5---|-5-----5-5---5---|-4-----4----4--|
|---3-3-----3---3-|---3-3-----3---3-|---2-2-----2---2-|---2-2---------|
|-----------------|-----------------|-----------------|---------------|
|
| Gtr II
| W                 W                 W                 W
|-----------------|-----------------|-----------------|---------------|
|-----------------|-----------------|-----------------|---------------|
|-----------------|-----------------|-----------------|---------------|
|-5---------------|-5---------------|-5---------------|-4-------------|
|-3---------------|-3---------------|-2---------------|-2-------------|
|-----------------|-----------------|-----------------|---------------|
|
| Gtr III
|                                                                  ~
| E E E E E E E E   E E E E E E E E   E E E E E E E E   E E E Q.   Q
|-----------------|-----------------|-----------------|---------------|
|-----------------|-----------------|-----------------|---------------|
|-7-----7-7---7---|-7-----7-7---7---|-7-----7-7---7---|-6-----6----6--|
|---5-5-----5---5-|---5-5-----5---5-|---4-4-----4---4-|---4-4---------|
|-----------------|-----------------|-----------------|---------------|
|-----------------|-----------------|-----------------|---------------|


 Verse
  N.C.
  Gtrs I, II
    PM--------|   PM--------|     PM--------|   PM--------|
  E S S S S S S E S S S S S S   E S S S S S S E S S S S S S
|-----------------------------|-----------------------------|
|-----------------------------|-----------------------------|
|-----------------------------|-----------------------------|
|-----------------------------|-----------------------------|
|-6-------------6-------------|-6-------------6-------------|
|---4-4-4-4-4-4---4-4-4-4-4-4-|---4-4-4-4-4-4---4-4-4-4-4-4-|


    PM--------|   PM--------|     PM--------|   PM--------|
  E S S S S S S E S S S S S S   E S S S S S S E S S S S S S
|-----------------------------|--------------------------------|
|-----------------------------|--------------------------------|
|-----------------------------|--------------------------------|
|-----------------------------|--------------------------------|
|-6-------------6-------------|-5-------------5----------------|
|---3-3-3-3-3-3---3-3-3-3-3-3-|---3-3-3-3-3-3---3-3-3-3-3-3----|


  Gtr I
    PM--------|   PM--------|     PM--------|   PM--------|
  E S S S S S S E S S S S S S   E S S S S S S E S S S S S S
|-----------------------------|-----------------------------|
|-----------------------------|-----------------------------|
|-----------------------------|-----------------------------|
|-----------------------------|-----------------------------|
|-6-------------6-------------|-6-------------6-------------|
|---4-4-4-4-4-4---4-4-4-4-4-4-|---4-4-4-4-4-4---4-4-4-4-4-4-|
|
| Gtr II
|   PM--------|   PM--------|     PM--------|   PM--------|
| E S S S S S S E S S S S S S   E S S S S S S E S S S S S S
|-----------------------------|-----------------------------|
|-----------------------------|-----------------------------|
|-----------------------------|-----------------------------|
|-8-------------8-------------|-8-------------8-------------|
|---6-6-6-6-6-6---6-6-6-6-6-6-|---6-6-6-6-6-6---6-6-6-6-6-6-|
|-----------------------------|-----------------------------|


                               1.                       2.
                     To Coda
                                                         G5
    PM--------|   PM--------|     PM--------|  ~~~
  E S S S S S S E S S S S S S   E S S S S S S  H         q  H.
|-----------------------------|-----------------------||----------|
|-----------------------------|----------------------o||----------|
|-----------------------------|-----------------------||----------|
|-----------------------------|-----------------------||----------|
|-6-------------6-------------|-5-------------[5]----o||-5--------|
|---3-3-3-3-3-3---3-3-3-3-3-3-|---3-3-3-3-3-3---------||-3--------|
|
|   PM--------|   PM--------|     PM--------|  ~~~
| E S S S S S S E S S S S S S   E S S S S S S  H         W
|-----------------------------|-----------------------||----------|
|-----------------------------|----------------------o||----------|
|-----------------------------|-----------------------||----------|
|-8-------------8-------------|-7-------------[7]-----||----------|
|---5-5-5-5-5-5---5-5-5-5-5-5-|---5-5-5-5-5-5--------o||----------|
|-----------------------------|-----------------------||----------|


    Q=116
    E5      F#G5     E5      Bb5A5     E5      F#G5
    PM----|   ~~     PM----|    ~~     PM----|   ~~
    E E E E E Q.     E E E E  E Q.     E E E E E Q.
||-----------------|-----------------|----------------|
||o----------------|-----------------|----------------|
||-----------------|-----------------|----------------|
||----------4s5----|----------8s7----|---------4s5----|
||o-2-2-2-2--------|-2-2-2-2---------|-2-2-2-2--------|
||--0-0-0-0-2s3----|-0-0-0-0--6s5----|-0-0-0-0-2s3----|
|
|   PM----|   ~~     PM----|    ~~     PM----|   ~~
|   E E E E E Q.     E E E E  E Q.     E E E E E Q.
||-----------------|-----------------|----------------|
||o----------------|-----------------|----------------|
||----------6s7----|---------10s9----|---------6s7----|
||----------4s5----|----------8s7----|---------4s5----|
||o-2-2-2-2--------|-2-2-2-2---------|-2-2-2-2--------|
||--0-0-0-0--------|-0-0-0-0---------|-0-0-0-0--------|


 1.,2.,3.          4.
  E5A5Bb5A5G#5      E5A5Bb5A5G#5
                   5/4
  PM       ~        PM       ~~~~~~~~
  E E  E E H     4x E E  E E Q  +Q    Q
|----------------||------------------------||
|---------------o||------------------------||
|----------------||------------------------||
|---7s=8s7-6-----||---7s=8s7-6--(6)\-------||
|-2-------------o||-2----------------------||
|-0-5s=6s5-4-----||-0-5s=6s5-4--(4)\-------||
|
| PM       ~        PM       ~~~~~~~~
| E E  E E H     4x E E  E E Q  +Q    Q
|----------------||------------------------||
|---------------o||------------------------||
|---9s10s9-8-----||---9s10s9-8--(8)\-------||
|---7s=8s7-6-----||---7s=8s7-6--(6)\-------||
|-2-------------o||-2----------------------||
|-0--------------||-0----------------------||


 Solo
  Q=110
  N.C.(F#5)
 3/4
  Gtr IV
  E  E E E E E   E  E E E E E   E   E E E E  E     E  E  E E E E
|--------------|--------------|-----------------|----------------|
|--------------|--------------|-----------------|----------------|
|--------------|--------------|-----------------|----------------|
|-5----------5-|--------------|-5------------5--|----------------|
|----4---4-----|-4----4---4---|-----4---4-------|--4-----4---4---|
|------2---2---|----2---2---2-|-------2---2-----|-----2----2---2-|
|
| Gtr I
|                                   ~~~~~~~~~~~~~~~~~~~~~~~~~~~~~~
| H.             H.             S S H       +E    +Q     H
|--------------|--------------|-----------------|----------------|
|--------------|--------------|-7h8p7-------(7)-|-(7)---14-------|
|--------------|--------------|-----------------|----------------|
|--------------|--------------|-----------------|----------------|
|--------------|--------------|-----------------|----------------|
|--------------|--------------|-----------------|----------------|


    E  E      E      E  E E     E  E      E      E  E E
|---------------------------|----------------------------|
|---------------------------|----------------------------|
|---------------------------|----------------------------|
|---5---------------------5-|----------------------------|
|------4-------------4------|---4---------4---------4----|
|-------------2---------2---|------2-------------2----2--|
|
|~~~~~~     T        ~~~~~~~~~~~~~~     T        ~~~
|      |----6-----|                |----6-----|
|  +E  S S  S S S S  Q.        +E  S S  S S S S  Q.
|---------------------------|----------------------------|
|-(14)-7h8-14-8p7h8-15------|-(15)-7h8-15-8p7h8-17-------|
|---------------------------|----------------------------|
|---------------------------|----------------------------|
|---------------------------|----------------------------|
|---------------------------|----------------------------|


  E      E      E     E      E      E        E     E      E      E      E E
|-----------------------------------------|---------------------------------||
|-----------------------------------------|---------------------------------||
|-----------------------------------------|---------------------------------||
|-5---------------------------------5-----|---------------------------------||
|--------4------------4-------------------|--4------------4-------------4---||
|---------------2------------2------------|--------2-------------2--------2-||
|
|      T        T        T        T          T        T        T        ~~~~~~
| |----3-----|  |----6-----| |----6-----|    |----6-----| |----6-----|
| S S  S S S S  S S S S  S S S S  S S S S    S S S S  S S S S  S S S S  Q
|-----------------------------------------|---------------------------------||
|-7h8-19-8p7h8-20-8p7h8-22-8p7h8-20-8p7h8-|-19-8p7h8-17-8p7h8-15-8p7h8-14---||
|-----------------------------------------|---------------------------------||
|-----------------------------------------|---------------------------------||
|-----------------------------------------|---------------------------------||
|-----------------------------------------|---------------------------------||


  N.C.
 4/4
    E  E    E  E E  E  E E    E  E E  E  E E  E E
|--------------------------|----------------------|
|--------------------------|----------------------|
|--------------------------|----------------------|
|-----------4-------5------|--4-------------------|
|------2---------2-------2-|-------2--5----2--4---|
|---0----------0-------0---|-----0-------0------0-|
|
|~~~~~~
|  +Q       Q.      Q.        Q.      Q.      Q
|--------------------------|----------------------|
|-(14)---------------------|----------------------|
|--------h/11------12------|-14------12------11---|
|--------------------------|----------------------|
|---------h/9------10------|-12------10-------9---|
|--------------------------|----------------------|


    E  E  E  E E  E  E E     E  E E  E  E E  E E
|------------------------|-----------------------||
|------------------------|-----------------------||
|------------------------|---4-------2-----------||
|---------4-------5------|-------------------4---||
|------2-------2-------2-|--------2-------2----5-||
|---0--------0-------0---|------0-------0--------||
|
|  +Q     Q.      Q.         Q.      Q.      Q
|------------------------|-----------------------||
|------------------------|-----------------------||
|-(11)---11------12------|-/16------14------12---||
|------------------------|-----------------------||
|--(9)----9------10------|-/14------12------10---||
|------------------------|-----------------------||


  N.C.(F#5)
 3/4
   E     E E E E   E      E  E E E   E      E
|---------------------|---------------------------|
|---------------------|---------------------------|
|---------------------|---------------------------|
|--5---------------5--|---------------------------|
|--------4---4--------|---4----4-----4------------|
|----------2---2------|------2---2----------2-----|
|
|        ~~~~~~~~~~~~~~~~~~~~
|  S  S  H        +E     +H         +S   S.    S.
|---------------------|-----------------21--------|
|---------------------|-----------------------23--|
|-11h12p11-------(11)-|-(11)-------(11)-----------|
|---------------------|---------------------------|
|---------------------|---------------------------|
|---------------------|---------------------------|


   E E E E E E   E        E        E        E        E        E
|--------------|------------------------------------------------------|
|--------------|------------------------------------------------------|
|--------------|------------------------------------------------------|
|--5---------5-|------------------------------------------------------|
|----4---4-----|-4-----------------4-----------------4----------------|
|------2---2---|----------2-----------------2-----------------2-------|
|
|  ~~
|                |------6-------|  |------6-------|  |------6-------|
|  H       Q     S  S  S  S  S  S  S  S  S  S  S  S  S  S  S  S  S  S
|--------------|---21-------------------------------------------------|
|-20-----------|------23p20h23p21p19----------------------------------|
|--------------|---------------------21p19p18h21p18-------------------|
|--------------|------------------------------------20p17p16h20p16h17-|
|--------------|------------------------------------------------------|
|--------------|------------------------------------------------------|


   E        E        E        E    E   E
|---------------------------------------------------|
|---------------------------------------------------|
|---------------------------------------------------|
|--5-----------------------------------5------------|
|-----------4-----------------4---------------------|
|--------------------2-------------2----------------|
|
|                             ~~~~~~~~
|  |------6-------|  |---6----|
|  S  S  S  S  S  S  S  S  S  E.  +E   T  T  T  T
|---------------------------------------------------|
|---------------------------------------------------|
|---------------------------------------------------|
|---------------------------------------------------|
|-21p19p17h21p17h19-17p16h19p16--(16)-16-16-17-17---|
|---------------------------------------------------|


   E           E           E           E           E           E
|-------------------------------------------------------------------------|
|-------------------------------------------------------------------------|
|-------------------------------------------------------------------------|
|-------------------------------------------------------------------------|
|--4-----------------------4-----------------------4----------------------|
|--------------2-----------------------2-----------------------2----------|
|
|  T  T  T  T  T  T  T  T  T  T  T  T  T  T  T  T  T  T  T  T  T  T  T  T
|-------------------------------------------------------------------------|
|-------------------------------------------------------------------------|
|-------------------------------------------------------19-19-18-18-21-21-|
|-------------------16-16-19-19-17-17-19-19-17-17-19-19-------------------|
|-20-20-17-17-20-20-------------------------------------------------------|
|-------------------------------------------------------------------------|


   E           E           E  E E   E
|-----------------------------------------------|
|-----------------------------------------------|
|-----------------------------------------------|
|--5--------------------------------5-----------|
|--------------4--------------4-----------------|
|--------------------------2----2---------------|
|
|                          ~~~~~~~~~~~~
|  T  T  T  T  T  T  T  T  Q.      +T   T  T  T
|-----------------------------------------------|
|-----------------------------------------------|
|-------------18-18-15-18s19------(19)-18-19-21-|
|-18-16-16-20-----------------------------------|
|-----------------------------------------------|
|-----------------------------------------------|


   E           E           E           E           E        E
|-------------------------------------------------------------||
|-------------------------------------------------------------||
|-------------------------------------------------------------||
|-------------------------------------------------------------||
|--4-----------------------4-----------------------4----------||
|--------------2-----------------------2--------------------2-||
|
|                                                        ~~~~~~~
|  T  T  T  T  T  T  T  T  T  T  T  T  T  T  T  T  T  T  E.
|-------------------------------------------------------------||
|-18-19-21-18-19-21-18-19-21-18-19-21-18-19-21----------------||
|----------------------------------------------18-19-20-18----||
|-------------------------------------------------------------||
|-------------------------------------------------------------||
|-------------------------------------------------------------||


  N.C.
 4/4
    E  E   E  E E  E  E E    E  E E  E  E E  E E
|-------------------------|----------------------|
|-------------------------|----------------------|
|-------------------------|----------------------|
|----------4-------5------|--4-------------------|
|------2--------2-------2-|-------2--5----2--4---|
|---0---------0-------0---|-----0-------0------0-|
|
|~~~~~~
|  +Q      Q.      Q.        Q.      Q.      Q
|-------------------------|----------------------|
|-------------------------|----------------------|
|-(18)---/11------12------|-14------12------11---|
|-------------------------|----------------------|
|---------/9------10------|-12------10-------9---|
|-------------------------|----------------------|


    E  E  E  E E  E  E E     E  E E  E  E E  E E
|------------------------|-----------------------||
|------------------------|-----------------------||
|------------------------|---4-------2-----------||
|---------4-------5------|-------------------4---||
|------2-------2-------2-|--------2-------2----5-||
|---0--------0-------0---|------0-------0--------||
|
|  +Q     Q.      Q.         Q.      Q.      Q
|------------------------|-----------------------||
|------------------------|-----------------------||
|-(11)---11------12------|-/16------14------12---||
|------------------------|-----------------------||
|--(9)----9------10------|-/14------12------10---||
|------------------------|-----------------------||


  N.C.(F#5)
 3/4
   E     E E E E   E      E  E E E  E           E
|---------------------|--------------------------------|
|---------------------|--------------------------------|
|---------------------|--------------------------------|
|--5---------------5--|--------------------------------|
|--------4---4--------|---4----4----4------------------|
|----------2---2------|------2---2--------------2------|
|
|        ~~~~~~~~~~~~~~~~~~~~
|  S  S  H        +E     +H         T  T  T  T  E
|---------------------|------------17-17-18-18-19b22===|
|---------------------|--------------------------------|
|-11h12p11-------(11)-|-(11)---------------------------|
|---------------------|--------------------------------|
|---------------------|--------------------------------|
|---------------------|--------------------------------|


    E  E E E   E   E    E  E  E       E E   E
|--------------------|-------------------------|
|--------------------|-------------------------|
|--------------------|-------------------------|
|---5--------------5-|-------------------------|
|------4---4---------|--4-----4---------4------|
|--------2-----2-----|-----2----------2-----2--|
|
|  +H         +E   E    E  E  S  +S   Q    +E
|-(19)-------(19)-19-|-19-19-19r(19)-19---(19)-|
|--------------------|-------------------------|
|--------------------|-------------------------|
|--------------------|-------------------------|
|--------------------|-------------------------|
|--------------------|-------------------------|


    E   E E E        E     E     E  E   E   E   E    E
|----------------------------|---------------------------|
|----------------------------|---------------------------|
|----------------------------|---------------------------|
|---5----------------------5-|---------------------------|
|-------4---4----------------|---4------4-------4--------|
|---------2----------2-------|------2-------2--------2---|
|
|                                       \1/     \1/
|  +E   Q   S  T  T  Q          +Q     +Q      +E    E
|-(19)r-------------19b24====|=(19)---(19)----(19)--19r==|
|----------------17-19b24====|=(19)---(19)----(19)-------|
|-------------19-------------|---------------------------|
|----------------------------|---------------------------|
|----------------------------|---------------------------|
|----------------------------|---------------------------|


   E  E E E  E           E
|-----------------------------------|
|-----------------------------------|
|-----------------------------------|
|--5---------------------5----------|
|-----4---4-------------------------|
|-------2----2----------------------|
|
|  ~~~
|  H         T  T  T  T  T  T  T  T
|-19r-------19-19-20-20-19-19-20-19-|
|-----------------------------------|
|-----------------------------------|
|-----------------------------------|
|-----------------------------------|
|-----------------------------------|


                                                                 N.C.
   E           E           E           E           E           E
|------------------------------------------------------------------|
|------------------------------------------------------------------|
|------------------------------------------------------------------|
|------------------------------------------------------------------|
|--4-----------------------4-----------------------4---------------|
|--------------2-----------------------2-----------------------2---|
|
|                                                              ~~
|  T  T  T  T  T  T  T  T  T  T  T  T  T  T  T  T  T  T  T  T  E
|-19-19-17-17-20-19-19-17-17-20-19-19-17-17----------17-17-17-19---|
|-------------------------------------------20-20-20---------------|
|------------------------------------------------------------------|
|------------------------------------------------------------------|
|------------------------------------------------------------------|
|------------------------------------------------------------------|


 4/4
    E  E  E           E       E E       E    E
|-------------------------------------------------|
|-------------------------------------------------|
|-------------------------------------------------|
|---------4---------------------5-----------------|
|------2----------------------2--------------2----|
|---0-----------------0-----------------0---------|
|
|   ~~~~                    ~~
|                                       |---3---|
|  +Q     T  T  T  T  T  T  Q      +S   E  E    E
|-(19)------------------12-12-----(12)-12-12------|
|--------------------12----12-----(12)---------12-|
|-----------------14------------------------------|
|--------------12---------------------------------|
|-----------14------------------------------------|
|--------14---------------------------------------|


   E           E         E E E       E E    E
|---------------------------------------------|
|---------------------------------------------|
|---------------------------------------------|
|--4------------------------------------------|
|------------------------2-5---------2-4------|
|--------------0-------------0--------------0-|
|
|                 ~~~~~~~~~~~~~~~~~~~
|  T  T  T  T  T  T  +Q.        +Q       E.
|-12------------------------------------------|
|----12---------------------------------------|
|-------14------------------------------------|
|----------12---------------------------------|
|-------------14------------------------------|
|----------------12-(12)-------(12)\----------|


  E        E           E           E      E        E           E E
|--------------------------------------------------------------------|
|--------------------------------------------------------------------|
|--------------------------------------------------------------------|
|----------------------4---------------------------5-----------------|
|----------2------------------------------2----------------------2---|
|-0--------------------------------0---------------------------0-----|
|
|    PM-------------------------------------------------|
| S  T  T  T  T  T  T  T  T  T  T  T  T E    T  T  T  T  T E..     S
|--------------------------------------------------------------------|
|--------------------------------------------------------------------|
|---------16----12-15-----------------------------12-12-12-----------|
|---12-14----14-------16-14-16-14-14-12-----12-12--------------------|
|--------------------------------------------------------------------|
|--------------------------------------------------------------------|


   E           E           E           E           E           E           E           E     W
|----------------------------------------------------------------------------------------|----------------|
|----------------------------------------------------------------------------------------|----------------|
|--4-----------------------------------2-------------------------------------------------|----------------|
|--------------------------------------------------------------------------4-------------|----------------|
|--------------------------2-----------------------------------2-----------------------5-|----------------|
|--------------0-----------------------------------0-------------------------------------|----------------|
|
|                                                                                      ~~~~~~~~~~
|  T  T  T  T  T  T  T  T  T  T  T  T  T  T  T  T  T  T  T  T  T  T  T  T  T  T  T  T  E    +S   S H..
|----------------------------------------------------------------------------------------|----------------|
|-------17----------15-17-------15----19-17----------------19-17-------------------------|----------------|
|-14-16----16-14-18-------14-16----18-------16-14-16-14-16-------18-16-14-16-14-16-17-16-|-(16)\----------|
|----------------------------------------------------------------------------------------|----------------|
|----------------------------------------------------------------------------------------|----------------|
|----------------------------------------------------------------------------------------|----------------|


       Bass Interlude
  E=213
  N.C.
 3/8   5/8     7/8       5/8             3/8
  W     W       W         W       W       W
|-----|-------|---------|-------|-------|-----|
|-----|-------|---------|-------|-------|-----|
|-----|-------|---------|-------|-------|-----|
|-----|-------|---------|-------|-------|-----|
|-----|-------|---------|-------|-------|-----|
|-----|-------|---------|-------|-------|-----|


                                                             Ending
                                                          Q=192
                                  D.S. al Coda                &
    F5                      E5                                G5
   5/8        7/8          5/8                     3/8       4/4
    Gtrs I, II
    H    +E    +H..         H    +E    +H     +E    +Q.    4x q  H.
||-----------|------------|----------|------------|--------||----------*|
||o----------|------------|----------|------------|-------o||----------*|
||-----------|------------|----------|------------|--------||----------*|
||--3----(3)-|-(3)--------|-2----(2)-|-(2)----(2)-|-(2)----||----------*|
||o-3----(3)-|-(3)--------|-2----(2)-|-(2)----(2)-|-(2)---o||-5--------*|
||--1----(1)-|-(1)--------|-0----(0)-|-(0)----(0)-|-(0)----||-3--------*|



Duration Legend
---------------
W - whole; H - half; Q - quarter; E - 8th; S - 16th; T - 32nd; X - 64th; a - acciaccatura
+ - note tied to previous; . - note dotted; .. - note double dotted
Uncapitalized letters represent notes that are staccato (1/2 duration)
Irregular groupings are notated above the duration line
Duration letters will always appear directly above the note/fret number it represents the
duration for.  Duration letters with no fret number below them represent rests.  Multi-
bar rests are notated in the form Wxn, where n is the number of bars to rest for.  Low
melody durations appear below the staff

Tablature Legend
----------------
 h   - hammer-on
 p   - pull-off
 b   - bend
 pb  - pre-bend
 r   - bend release (if no number after the r, then release immediately)
 /\  - slide into or out of (from/to "nowhere")
 s   - legato slide
 S   - shift slide
 - natural harmonic
[n]  - artificial harmonic
n(n) - tapped harmonic
 ~   - vibrato
 tr  - trill
 T   - tap
 TP  - trem. picking
 PM  - palm muting
\n/  - tremolo bar dip; n = amount to dip
 \n  - tremolo bar down
 n/  - tremolo bar up
/n\  - tremolo bar inverted dip
 =   - hold bend; also acts as connecting device for hammers/pulls
 <> - volume swell (louder/softer)
 x   - on rhythm slash represents muted slash
 o   - on rhythm slash represents single note slash

Misc Legend
-----------
 |  - bar
||  - double bar
||o - repeat start
o|| - repeat end
*|  - double bar (ending)
 :  - bar (freetime)
 $  - Segno
 &  - Coda
Tempo markers -  = BPM(8/16=s8/s16), where s8 = swing 8ths, s16 = swing 16ths

Tap to rate this tab
# A B C D E F G H I J K L M N O P Q R S T U V W X Y Z