Song name
# A B C D E F G H I J K L M N O P Q R S T U V W X Y Z

Decyfer Down - Best I Can tab

Decyfer Down - Best I Am
Standard Tuning - Capo on fret 3

VERSES
E-|--0-0-0-0--2-2--0--3-3-3-3-3-3-3-3----------------------------------|
A-|--5-5-5-5--5-5--5--5-5-5-5-5-5-5-5----------------------------------|
D-|--5-5-5-5--5-5--5--5-5-5-5-5-5-5-5----------------------------------|
G-|--------------------------------------------------------------------|
B-|--------------------------------------------------------------------|
e-|--------------------------------------------------------------------|


PRECHORUS
E-|--3---3-2---2-0----0-2---2-3---3-2---2-0-0--------------------------|
A-|---5-----5------5-----5-----5-----5------5--------------------------|
D-|----5-----5------5-----5-----5-----5-----5--------------------------|
G-|--------------------------------------------------------------------|
B-|--------------------------------------------------------------------|
e-|--------------------------------------------------------------------|


CHORUS (you figure out the strumming pattern)
E-|--3--0----7--5--3-----------3--0----7--5--3----7--5--3--------------|
A-|--5--5----9--7--5-----------5--5----9--7--5----9--7--5--------------|
D-|--5--5----9--7--5-----------5--5----9--7--5----9--7--5--------------|
G-|--------------------------------------------------------------------|
B-|--------------------------------------------------------------------|
e-|--------------------------------------------------------------------|


I don't have the break yet, but it sounds like it uses basically the same notes as the 
Maybe you can figure it out. Either way, this much should get you through the song up to 
break.

Very easy song, though.

cannon.anthony at ymail dot com for any questions.
Tap to rate this tab
# A B C D E F G H I J K L M N O P Q R S T U V W X Y Z