Song name
# A B C D E F G H I J K L M N O P Q R S T U V W X Y Z

Deep Purple - Not Responsible tab

Not Responsible
(Blackmore/Gillan/Glover)
From "Perfect Strangers", 1984
the first riff is in A

E--------------------------------------------------------------------------|
B--------------------------------------------------------------------------|
G------5---4---2-2-------------------5---4---2-----------------------------|
D----2---2---2------2h3-0h2--------2---2---2---3---------------------------|
A--0------------------------3p2p0------------------------------------------|
E--------------------------------------------------------------------------|


E--------------------------------------------------------------------------|
B--------------------------------------------------------------------------|
G------5---4---2-2-------------------5---4---2-----------------------------|
D----2---2---2------2h3-0h2--------2---2---2---3/--------------------------|
A--0------------------------3p2p0------------------------------------------|
E--------------------------------------------------------------------------|

in the song ritchie drops the riff to E:

E--------------------------------------------------------------------------|
B--------------------------------------------------------------------------|
G----------------------------------------------0---------------------------|
D------5---4---2-2-------------------5---4---2-----------------------------|
A----2---2---2------2h3-0h2--------2---2---2---3---------------------------|
E--0------------------------3p2p0------------------------------------------|


E--------------------------------------------------------------------------|
B--------------------------------------------------------------------------|
G------5---4---2------0---------2------------------------------------------|
D----2---2---2------------4---2-0------------------------------------------|
A--0--------------3-3---3---3----------------------------------------------|
E--------------------------------------------------------------------------|
Tap to rate this tab
# A B C D E F G H I J K L M N O P Q R S T U V W X Y Z