Song name
# A B C D E F G H I J K L M N O P Q R S T U V W X Y Z

Deep Purple - Smoke On The Water tab

Smoke On The Water

Deep Purple
Machine Head

Guitar 1 - Rhythm - EADGBE
Guitar 2 - Lead  - EADGBE

112
4/4

ORDER:

INTRO
VERSE
CHORUS
MAIN RIFF X2
VERSE
CHORUS
MAIN RIFF X2
SOLO
MAIN RIFF X1
VERSE
CHORUS
OUTRO

INTRO/MAIN RIFF

Guitar 1
                                                              (intro= 5x)
||-----------------|---------------|----------------|------------------||
||o----------------|---------------|----------------|-----------------o||
||------3---5--x---|---3---6-5---x-|-----3---5--x-3-|--------------x---||
||---5--3---5----5-|---3---6-5-----|-5---3---5----3-|---5--------------||
||o--5-----------5-|---------------|-5--------------|---5-------------o||
||-----------------|---------------|----------------|------------------||

(only in intro)
|-----------------|---------------|----------------|------------------|
|-----------------|---------------|----------------|------------------|
|------3---5--x---|---3---6-5---x-|-----3---5--x-3-|------------------|
|---5--3---5----5-|---3---6-5-----|-5---3---5----3-|---5----------5---|
|---5-----------5-|---------------|-5--------------|---5----------5---|
|-----------------|---------------|----------------|------------------|

VERSE

Guitar 1
                                                                          4x
||-----------------|-----------------|-----------------|------------------||
||o----------------|-----------------|-----------------|-----------------o||
||-----------------|-----------------|-----------------|------------------||
||-----5-------5---|-----5-------5---|-----5-------3---|-----5-------5----||
||o--5-------5-----|---5-------5-----|---5-------3-----|---5-------5-----o||
||-3-------3-------|-3-------3-------|-3-------1-------|-3-------3--------||

CHORUS

Guitar 1

|-----------------|-----------------|-----------------|------------------|
|-----------------|-----------------|-----------------|------------------|
|---------5-------|-----------------|-----------------|------------------|
|-----5-----------|---------6-------|-5---------------|------------------|
|-3---------------|-----6-----------|-5---------------|------------------|
|-----------------|-4---------------|-3---------------|------------------|

|-----------------|-----------------|
|-----------------|-----------------|
|---------5-------|-----------------|
|-----5-----------|---------6-------|
|-3---------------|-----6-----------|
|-----------------|-4---------------|

SOLO

Guitar 2
|---------------------|
|---------------------|
|---------------------|
|------------------10-|
|---------------12----|
|---------------------|

|---------------------|---------------------|
|------------13b15r13-|-11b12-----11b13-----|
|-12------------------|-------12------------|
|---------------------|------------------12-|
|---------------------|---------------------|
|---------------------|---------------------|

|---------------------|-----------------------|
|-------11-11b13------|-8-10-8-10-8-6-8-6---6-|
|-10-12---------11-10-|-------------------8---|
|---------------------|-----------------------|
|---------------------|-----------------------|
|---------------------|-----------------------|

|---------------------|---8-----------8-------|
|-6-8-6-8----------8--|-11--11-11b13-----8-11-|
|---------------------|-----------------------|
|---------------------|-----------------------|
|---------------------|-----------------------|
|---------------------|-----------------------|

|------8-----------------------------------|
|----8---11-10-8---------------------------|
|-10-------------11-10-8----10-8-7---------|
|------------------------10--------10-8-7--|
|------------------------------------------|
|------------------------------------------|

|--------------------------------|
|--------------------------------|
|-------------5-------8---7---5--|
|-5---8---7-------8--------------|
|--------------------------------|
|--------------------------------|

|--------------------------------|
|--------------------------------|
|-3b5r3--------------5--3--2--3--|
|--------------------------------|
|--------------------------------|
|--------------------------------|

|--------------------------------|
|--------------------------------|
|-2--3--2--0--0------(0)---------|
|--------------------------------|
|--------------------------------|
|--------------------------------|

|-----3---3-3-------------------|
|---3---6-----6-5-3-------------|
|-5-----------------6-5-3---5-3-|
|-------------------------5-----|
|-------------------------------|
|-------------------------------|

|-------------------------------|
|-------------------------3--6--|
|-5b7--5b7--5b7--5b6b7----------|
|-------------------------------|
|-------------------------------|
|-------------------------------|

|--3-----------6--8b10----------|
|-----3--6--8-------------------|
|-------------------------------|
|-------------------------------|
|-------------------------------|
|-------------------------------|

|-8b10--8--6--8-----------------|
|----------------8-----------8--|
|-------------------------------|
|-------------------------------|
|-------------------------------|
|-------------------------------|

|---------8------8------8----8-----10----|
|-11----8---11-8---11-8---11-------------|
|----10----------------------------------|
|----------------------------------------|
|----------------------------------------|
|----------------------------------------|

|-11--13----13b15-----------13--|
|-------------------------------|
|-------------------------------|
|-------------------------------|
|-------------------------------|
|-------------------------------|

|----13--13--13--13b15------14--|
|-------------------------------|
|-------------------------------|
|-------------------------------|
|-------------------------------|
|-------------------------------|

|--13b15--13--10----------------|
|-----------------13--13b15-----|
|-------------------------------|
|-------------------------------|
|-------------------------------|
|-------------------------------|

|----------------------------------|
|------6---------------------------|
|-5b7-------5b7r5--3---5--3b4------|
|-------------------------------5--|
|----------------------------------|
|----------------------------------|

|-----8----6----8--8b10--8b10---|
|--8----------------------------|
|-------------------------------|
|-------------------------------|
|-------------------------------|
|-------------------------------|

|--8b10-8b10-8b10-8b10-8b10-8b10-8b10-8b10--|
|-------------------------------------------|
|-------------------------------------------|
|-------------------------------------------|
|-------------------------------------------|
|-------------------------------------------|

|--8b10-8b9.5-8b9-8b9-8b8.5-----------------|
|----------------------------6b6.5b7.5b8----|
|-------------------------------------------|
|-------------------------------------------|
|-------------------------------------------|
|-------------------------------------------|

Guitar 1 (begins 1 bar after guitar 2)
|-----------------|-----------------|-----------------|------------------|
|-----------------|-----------------|-----------------|------------------|
|-----------------|-----------------|-----------------|------------------|
|-----5-------5---|-----5-------5---|-----5-------5---|-----5-------3535-|
|---5-------5-----|---5-------5-----|---5-------5-----|---5-------5------|
|-3-------3-------|-3-------3-------|-3-------3-------|-3-------3--------|
                                                                          2x
||-----------------|-----------------|-----------------|------------------||
||o----------------|-----------------|-----------------|-----------------o||
||-----------------|-----------------|-----5-------5---|------------------||
||-----5-------5---|-----5-------5---|---5-------5-----|-----5-------5----||
||o--5-------5-----|---5-------5-----|-3-------3-------|---5-------5-----o||
||-3-------3-------|-3-------3-------|-----------------|-3-------3--------||

|-----------------|-----------------|-----------------|------------------|
|-----------------|-----------------|-----------------|------------------|
|-----------------|-----------------|-----------------|------------------|
|-----5-------5---|-----5-------5---|-----5-------3---|-----5-------5----|
|---5-------5-----|---5-------5-----|---5-------3-----|---5-------5------|
|-3-------3-------|-3-------3-------|-3-------1-------|-3-------3--------|

|-----------------|-----------------|-1---------------|-1----------------|
|-----------------|-----------------|-1---------------|-1----------------|
|---------5-------|----------5------|-2---------------|-2----------------|
|-----5-----------|-----------------|-3---------------|-3-----------3/(8)|
|-3---------------|-----------------|-3---------------|-3-----------3/(8)|
|-----------------|-----------------|-1---------------|-1-----------1/(8)|

(then main riff once)

OUTRO

(main Riff continuous fading guitar 2)



(below is optional for a third guitar to play over the top)
|-----------------|-----------------|-----------------|-----------------|
|-----------------|-----------------|-----------------|-----------------|
|-----3-----------|-----3-----------|-3---------------|-3---------------|
|-3-5-3-5-3-------|-3-5-3-5-3-------|-3-5-3-5-----3-5-|-3-5-3-5-----3-5-|
|-3-5---5-3-------|-3-5---5-3-------|---5-3-5-----3-5-|---5-3-5-----3-5-|
|-----------------|-----------------|-----------------|-----------------|

|-----------------|-----------------|-----------------|-----------------|
|-----------------|-----------------|-----------------|-----------------|
|-3---------------|-3---------------|-3-3-----3-3-----|-3-3-----3-3-----|
|-3-5-3-5-----3-5-|-3-5-3-5-----3-5-|-3-3-3-5-3-3-3-5-|-3-3-3-5-3-3-3-5-|
|---5-3-5-----3-5-|---5-3-5-----3-5-|-----3-5-----3-5-|-----3-5-----3-5-|
|-----------------|-----------------|-----------------|-----------------|

|-----------------|-----------------|-----------------|------------------|
|-----------------|-----------------|-----------------|------------------|
|-----------------|-----------------|-----------------|------------------|
|-5---5---5---5-5-|-3-5-3-5-3-5-3-5-|-3-5-3-5-3-5-3-5-|------------------|
|-5---5---5---5-5-|-3-5-3-5-3-5-3-5-|-3-5-3-5-3-5-3-5-|------------------|
|-----------------|-----------------|-----------------|------------------|
Tap to rate this tab
 
# A B C D E F G H I J K L M N O P Q R S T U V W X Y Z