Song name
# A B C D E F G H I J K L M N O P Q R S T U V W X Y Z

Deerhunter - Sleepwalking tab

deerhunter - sleepwalking

Intro [rythm gtr chords]

E --------------------------|
B -3--3--7--7--5--5--2--2---|
G -2--2--7--7--6--6--2--2---|
D -0--0--0--0--0--0--0--0---|
A --------------------------|
E --------------------------|

Intro [lead gtr]

E ------------|
B ----7--5----|
G -7--------6-|
D ------------|
A ------------|
E ------------|

Verse [lead gtr]

E -9-9-9-9-9-9-9-9----------------------------------------------------|
B -----------------9-9-9-9-7-7-7-7-5-5-5---7-7-7---2-2-2-2-0-0-0-0----|
G --------------------------------------------------------------------| x2
D --------------------------------------------------------------------|
A --------------------------------------------------------------------|
E --------------------------------------------------------------------|


E ---------------------|
B -2-2-2---7---5---3---|
G ---------------------|
D ---------------------|
A ---------------------|
E ---------------------|


outro

E -0-0-0-0-2-2-2-2-0-0-0-0-0-0-0-0-|
B -3-3-3-3-3-3-3-3-2-2-2-2-2-2-2-2-|
G -2-2-2-2-2-2-2-2-2-2-2-2-2-2-2-2-|
D -0-0-0-0-0-0-0-0-2-2-2-2-2-2-2-2-|
A -----------------0-0-0-0-0-0-0-0-|
E ---------------------------------|

E -2-2-2-2-2-2-2-2-2-2-2-2-2-2-2-2-|
B -2-2-2-2-3-3-3-3-2-2-2-2-3-3-3-3-|
G -4-4-4-4-4-4-4-4-4-4-4-4-4-4-4-4-|
D -4-4-4-4-4-4-4-4-4-4-4-4-4-4-4-4-|
A -2-2-2-2-2-2-2-2-2-2-2-2-2-2-2-2-|
E ---------------------------------|
Tap to rate this tab
# A B C D E F G H I J K L M N O P Q R S T U V W X Y Z