Song name
# A B C D E F G H I J K L M N O P Q R S T U V W X Y Z

Def Leppard - Promises tab

                      Def leppard – Promises solo
                      From the album  “Euphoria”

By Sanjeev George and Thomas George
Contact at SanjeevGeorge123@yahoo.co.in


e|--------------------------------------------------------------12----14----14b16v--------|
B|-------------------------12--------------------------10/12-12----12----12---------------|
G|-----11b13r-11b13r-11b13----11b13r11--------7---6v--------------------------------------|
D|-------------------------------------9v-----7-------------------------------------------|
A|----------------------------------------------------------------------------------------|
E|----------------------------------------------------------------------------------------|

e|---12-0-11-0----0----0--12-0-11-0----0----0--12-0-11-0----0-11-0--12-14-14/16-12--------|
B|-------------14---12--------------14---12--------------14-------------------------------|
G|----------------------------------------------------------------------------------------|
D|----------------------------------------------------------------------------------------|
A|----------------------------------------------------------------------------------------|
E|----------------------------------------------------------------------------------------|

e|--17—--16v--16/17-17/19-21/24-24v---------------|
B|------------------------------------------------|
G|------------------------------------------------|
D|------------------------------------------------|
A|------------------------------------------------|
E|------------------------------------------------|

Rating please?
Tap to rate this tab
# A B C D E F G H I J K L M N O P Q R S T U V W X Y Z