Song name
# A B C D E F G H I J K L M N O P Q R S T U V W X Y Z

Defeater - Headstone tab

-----------------------------------------------------------------------------
                             Headstone by: Defeater
-----------------------------------------------------------------------------
Tabbed by:Logan Wind
E-mail:Logan.wind@live.ca

Tuning:D Standard (DGCFAD)

Should be 99% correct! Not bad for my first tab

e|------------------------------------------------------------------------------|
B|-----1----0--------------3----1--------------1----0---------------3----1----1-|
G|--0----0--0--0-0--0-0-0----0--0--0-0--0-0-0----0--0--0-0--0-0-0-----0--0-0--0-|
D|------------------------------------------------------------------------------|
A|------------------------------------------------------------------------------|
E|-0-0----0-----0----0-0-0----0-----0----0-0-0----0-----0----0-0-0-----0----0---|

e|-----|-------------------------------------------|
B|-----|--3--0-0--3\5--3--3--3---1--3--3-3--3--1-0-|
G|-----|--0--0-0-------0--0--0---0--0--0-0--0--0-0-| x4
D|-----|---------------5--4--5---------------------| 
A|-2-0-|------------------------3--3----0----0--0--|
E|-----|-3--3-3------------------------------------|

e|---------------------------------------------|    |--------------|
B|--------------------------0------------------|    |-0~-----------|
G|---0-4-4-2-2-0-0-0-----0--0-0-0--------0-0-0-| x4 |-0~-----------|
D|--------------------0h2-2----2---------------|    |--------------|
A|--------------------------------0h2h3-3---3--|    |-3~-----------|
E|-3--3---3---3---3----------------------------|    |--------------|

e|-------------------------------------------|
B|--3--0-0--3\5--3--3--3---1--3--3-3--3--1-0-|
G|--0--0-0-------0--0--0---0--0--0-0--0--0-0-| x4
D|---------------5--4--5---------------------| 
A|------------------------3--3----0----0--0--|
E|-3--3-3------------------------------------|

e|----------------------------------------------------------------------------------|
B|-----1----0--------------3----1--------------1----0---------------3----1----------|
G|--0----0--0--0-0--0-0-0----0--0--0-0--0-0-0----0--0--0-0--0-0-0-----0--0-0-0--0-0-| x2
D|----------------------------------------------------------------------------------|
A|----------------------------------------------------------------------------------|
E|-0-0----0-----0----0-0-0----0-----0----0-0-0----0-----0----0-0-0-----0----0----0--|

e|---------------------------------------------|    |--------------|
B|--------------------------0------------------|    |-0~-----------|
G|---0-4-4-2-2-0-0-0-----0--0-0-0--------0-0-0-| x4 |-0~-----------|
D|--------------------0h2-2----2---------------|    |--------------|
A|--------------------------------0h2h3-3---3--|    |-3~-----------|
E|-3--3---3---3---3----------------------------|    |--------------|

e|-------------------------------------------|    |---------------------|
B|--3--0-0--3\5--3--3--3---1--3--3-3--3--1-0-|    |----0------1------0~-|
G|--0--0-0-------0--0--0---0--0--0-0--0--0-0-| x4 |-------------0----0~-|
D|---------------5--4--5---------------------|    |---------------------|
A|------------------------3--3----0----0--0--|    |---------------------|
E|-3--3-3------------------------------------|    |-0-----0-------0-----|


************************************

| /   slide up
| \   slide down
| h   hammer-on
| p   pull-off
| ~   vibrato
| +   harmonic
| x   Mute note
| b   Bend
| pb  Pre-bend
| br  Bend release
| pbr Pre-bend release
| brb Bend release bend

************************************
Tap to rate this tab
# A B C D E F G H I J K L M N O P Q R S T U V W X Y Z