Song name
# A B C D E F G H I J K L M N O P Q R S T U V W X Y Z

Deftones - Mascara Tab tab

Help us improve GuitareTab! Take a short survey!
Deftones, Mascara, Around the Fur...

i learned this on my acoustic, sounds good to me... but then again this is me were talking about.


Intro\Verse
e|--------------------
B|--------------------
G|--------------------
D|--------------------
A|----0------5--------
E|--6-----2---5-2-----

Aftr plaing that 4 times...

e|--------------------
B|--------------------
G|--------------------
D|-----------------6--
A|----0------5--------
E|--6-----2---5-2-----

Chorus:

e|------------------------------------
B|------------------------------------
G|------------------------------------
D|--7-7-7-7-7-7-7-7--4-4-4-5-4-4-4-4--
A|--7-7-7-7-7-7-7-7--4-4-4-5-4-4-4-4--
E|--7-7-7-7-7-7-7-7--4-4-4-5-4-4-4-4--

Then Endding Part 1

e|-------------
B|-------------
G|--3--3-------
D|--3----3-----
A|--2-----2----
E|--0-------0--

Endding Part 2

e|----------
B|----------
G|--3-------
D|----3-----
A|-----2----
E|-------0--

Reapeat till song ends...
Related for Mascara Tab tab