Song name
# A B C D E F G H I J K L M N O P Q R S T U V W X Y Z

Delain - Control The Storm tab

Tune down 1 step

DGCFAD 

             PM PM    PM  
     Q    Q    E  E  E  E   
D||------------------------|
A||------------------------|
F||--4----4----4--4-----4--|
C||--4----4----4--4-----4--|
G||--2----2----2--2-----2--|
D||------------------------|


  Q    Q    Q    Q     
----------------------|
----------------------|
--4----4----4----L----|
--4----4----4----L----|
--2----2----2----L----|
----------------------|


            PM PM    PM  
  Q    Q    E  E  E  E   
------------------------|
------------------------|
--4----4----4--4-----4--|
--4----4----4--4-----4--|
--2----2----2--2-----2--|
------------------------|


  Q    Q    Q    Q     
----------------------|
----------------------|
--4----4----4----L----|
--4----4----4----L----|
--2----2----2----L----|
----------------------|


            PM PM    PM  
  Q    Q    E  E  E  E   
------------------------|
------------------------|
------------------------|
--5----5----5--5-----5--|
--5----5----5--5-----5--|
--3----3----3--3-----3--|


  Q    Q    Q    Q     
----------------------|
----------------------|
----------------------|
--5----5----5----L----|
--5----5----5----L----|
--3----3----3----L----|


            PM PM    PM  
  Q    Q    E  E  E  E   
------------------------|
------------------------|
------------------------|
--2----2----2--2-----2--|
--2----2----2--2-----2--|
--0----0----0--0-----0--|


  Q    Q    Q    Q     
----------------------|
----------------------|
----------------------|
--2----2----2----L----|
--2----2----2----L----|
--0----0----0----L----|


            PM PM    PM  
  Q    Q    E  E  E  E   
------------------------|
------------------------|
------------------------|
--2----2----2--2-----2--|
--2----2----2--2-----2--|
--0----0----0--0-----0--|


  Q    Q    Q    Q     
----------------------|
----------------------|
----------------------|
--2----2----2----L----|
--2----2----2----L----|
--0----0----0----L----|


  E  E  E  E  E  E  E  E                   
--------------------------|
--------------------------|
--------------------------|
--------------------------|
--------------------------|
--7--6--5--L--5--4--3--L--|
Tap to rate this tab
# A B C D E F G H I J K L M N O P Q R S T U V W X Y Z