Song name
# A B C D E F G H I J K L M N O P Q R S T U V W X Y Z

Delmag - Hole In The Sky tab

Tab for Hole In the Sky by Delmag, this is a great song that not many people know 
about. This is my first tab so give me some feedback. the song is in standard tuning.

   Intro/Verse
e|----------------------------------------------------------------------|
B|----------------------------------------------------------------------|
G|-----------0----------------------------------------------------------|
D|-------5-----5-----------2-----5---5----------------------4-----7---7-|
A|--7-7----7-----7--5--3-3---3-3---3-------5-----3---3--5-5---5-5---5---|
E|-------------------------------------3-3---3-3---3--------------------| x5
   
   Last measure of verse 1
e|-----------------------------------------------------------------------------------|
B|-----------------------------------------------------------------------------------|
G|-----------0-----------------------------------------------------------------------|
D|-------5-----5-----------2-----5---5----------------------4-----5----4-----4-4-4-4-|
A|--7-7----7-----7--5--3-3---3-3---3-------5-----3---3--5-5---5-5---5-5--5-5-5-5-5-5-|
E|-------------------------------------3-3---3-3---3---------------------------------| 

   First Chorus
e|---------------0---------3-----------|
B|---------------1---------3--------3--|
G|-----0---------0---------0--------2--|
D|-----2---------2---------0--------0--|
A|-----2------3--3---------2-----0-----|
E|--0--0----------------3--3-----------| x2

   Verse 2
e|----------------------------------------------------------------------|
B|----------------------------------------------------------------------|
G|-----------0----------------------------------------------------------|
D|-------5-----5-----------2-----5---5----------------------4-----7---7-|
A|--7-7----7-----7--5--3-3---3-3---3-------5-----3---3--5-5---5-5---5---|
E|-------------------------------------3-3---3-3---3--------------------| x1

  Verse 2 after measure 1 (Palm Muted)
e|-------------------------------------------------------------------|
B|-------------------------------------------------------------------|
G|-------------------------------------------------------------------|
D|--5-5-5-5-5-5-5-5-5-5-5-5-5-5-5-5-----------------7-7-7-7-7-7-7-7--|
A|--7-7-7-7-7-7-7-7-3-3-3-3-3-3-3-3-5-5-5-5-5-5-5-5-5-5-5-5-5-5-5-5--|
E|----------------------------------3-3-3-3-3-3-3-3------------------| x4

  Chorus
e|-----------------------------------------------------------|
B|-----------------------------------------------------------|
G|----------------5--5--5-5-5-5---------------7--7--7-7-7-7--|
D|--2--2--2-2-2-2-5--5--5-5-5-5-5--5--5-5-5-5-7--7--7-7-7-7--|
A|--2--2--2-2-2-2-3--3--3-3-3-3-5--5--5-5-5-5-5--5--5-5-5-5--|
E|--0--0--0-0-0-0---------------3--3--3-3-3-3----------------| x2

  
  Verse 3 (Palm Muted)
e|-------------------------------------------------------------------|
B|-------------------------------------------------------------------|
G|-------------------------------------------------------------------|
D|--5-5-5-5-5-5-5-5-5-5-5-5-5-5-5-5-----------------7-7-7-7-7-7-7-7--|
A|--7-7-7-7-7-7-7-7-3-3-3-3-3-3-3-3-5-5-5-5-5-5-5-5-5-5-5-5-5-5-5-5--|
E|----------------------------------3-3-3-3-3-3-3-3------------------| x4

  Chorus
e|-----------------------------------------------------------|
B|-----------------------------------------------------------|
G|----------------5--5--5-5-5-5---------------7--7--7-7-7-7--|
D|--2--2--2-2-2-2-5--5--5-5-5-5-5--5--5-5-5-5-7--7--7-7-7-7--|
A|--2--2--2-2-2-2-3--3--3-3-3-3-5--5--5-5-5-5-5--5--5-5-5-5--|
E|--0--0--0-0-0-0---------------3--3--3-3-3-3----------------| x2

  Bridge
e|---------------------------------------------------------------------|
B|---------------------------------------------------------------------|
G|---------------------------------------------------------------------|
D|--------------------5-5-5-5-5-5-5-5-----------------7-7-7-7-7-7-7-7--|
A|----2-2-2-2-2-2-2-2-3-3-3-3-3-3-3-3-5-5-5-5-5-5-5-5-5-5-5-5-5-5-5-5--|
E|----0-0-0-0-0-0-0-0-----------------3-3-3-3-3-3-3-3------------------| x4

  Chorus
e|-----------------------------------------------------------|
B|-----------------------------------------------------------|
G|----------------5--5--5-5-5-5---------------7--7--7-7-7-7--|
D|--2--2--2-2-2-2-5--5--5-5-5-5-5--5--5-5-5-5-7--7--7-7-7-7--|
A|--2--2--2-2-2-2-3--3--3-3-3-3-5--5--5-5-5-5-5--5--5-5-5-5--|
E|--0--0--0-0-0-0---------------3--3--3-3-3-3----------------| x2

  Outro
e|-------------------------------------------------------------|
B|-------------------------------------------------------------|
G|----------------5--5--5-5-5-5---------------7--7--7-7-7-7----|
D|--2--2--2-2-2-2-5--5--5-5-5-5-5--5--5-5-5-5-7--7--7-7-7-7----|
A|--2--2--2-2-2-2-3--3--3-3-3-3-5--5--5-5-5-5-5--5--5-5-5-5----|
E|--0--0--0-0-0-0---------------3--3--3-3-3-3------------------| x2

Enjoy!

http://www.myspace.com/delmagband
Tap to rate this tab
# A B C D E F G H I J K L M N O P Q R S T U V W X Y Z