Song name
# A B C D E F G H I J K L M N O P Q R S T U V W X Y Z

Demi Lovato - I Hate You Dont Leave Me tab

-------------------------------------------------------------------------------
                             I HATE YOU, DON'T LEAVE ME - Demi Lovato
-------------------------------------------------------------------------------
Tabbed by: Lauren Marquez
E-mail: lauren.marquez4@gmail.com

Tuning: Eb (1/2 step down)

The chords in the chorus and bridge are as follows:

     C     G     D     D*   Em    Bm
e|---3-----3-----3-----2----3-----2---|
B|---3-----3-----3-----3----3-----3---|
G|---0-----0-----2-----2----0-----4---|
D|---2-----0-----0-----0----2-----4---|
A|---3-----2----------------2-----2---|
E|---------3--------------------------|

(These aren't the actual chord names; it's just to make things easier.)

-------------------------------------------------------------------------------

Intro/Verse:
e|---------------------------------------------------|
B|-----3----3p0---0----------------3----3p0----------|
G|-----0----0-----0---2/4\2p0------0----0-----4--2---|
D|----------------2---0-----------------------5--0---|
A|---3----3----------------------3----3-------5------|
E|---------------------------------------------------|



Chorus:
    C        G      D         Em
I admit I'm in and out of my head
      C      G     D               Em
Don't listen to a single word I've said
     C       G         D          Em
Just hear me out before you run away
       C        G         D
'Cause I can't take this pain



Bridge:
       Em
I'm addicted to the madness
       C
I'm a daughter of the sadness
     G                          Bm
I've been here too many times before
       Em
Been abandoned and I'm scared now
        C
I can't handle another fall out
     G                              D*
I'm fragile, just washed upon the shore


Intro x2
Verse x6
Chorus x1
Verse x5
Chorus x1
Bridge x1
Verse x2
Chorus x1
Verse x1.5


Enjoy :)
Tap to rate this tab
# A B C D E F G H I J K L M N O P Q R S T U V W X Y Z