Song name
# A B C D E F G H I J K L M N O P Q R S T U V W X Y Z

Demonoid - Death tab

Help us improve GuitareTab! Take a short survey!
-------------------------------------------------------------------------------
			     DEATH - DEMONOID
-------------------------------------------------------------------------------
Tabbed by: GarionB
Email: garionb@hotmail.co.uk

Tuning: Dropped C#
Tempo: 73bpm

D#|-------------------------------------------------|
A#|-------------------------------------------------|
F#|-------------------------------------------------|
c#|-------------5p4---4---------------------------4-|
G#|-----------------6---6-5-------------3-5-6-5-6---|
C#|-0-0-0-0-0-0-------------0-0-0-0-0-0-------------|

D#|-------------------------------------------------|
A#|-------------------------------------------------|
F#|-------------------------------------------------|
c#|-------------5p4---4-----------------------------|
G#|-----------------6---6-5-------------6-5-3-------|
C#|-0-0-0-0-0-0-------------0-0-0-0-0-0-------8-7-5-|

D#|-------------------------------------------------|
A#|-------------------------------------------------|
F#|-------------------------------------------------|
c#|-------------5p4---4---------------------------4-|
G#|-----------------6---6-5-------------3-5-6-5-6---|
C#|-0-0-0-0-0-0-------------0-0-0-0-0-0-------------|

D#|-------------------------------------------------|
A#|-------------------------------------------------|
F#|-------------------------------------------------|
c#|-------------5p4---4-----------------------------|
G#|-----------------6---6-5-6-5-3-5-1-3-------------|
C#|-0-0-0-0-0-0-------------------------8-7-5-8-7-5-|

First 4 bars x 3 then;

D#|---------------------------|
A#|---------------------------|
F#|---------------------------|
c#|-8--7--8--1--3--1--0-------|
G#|-8--7--8--1--3--1--0-------|
C#|-8--7--8--1--3--1--0-------|

All open notes apart from the chords are palm muted. 
I'm sure you can work out the 1st verse from this tab 
(Its all open triplets with the 4th bar of the intro thrown in).
Related for Death tab