Song name
# A B C D E F G H I J K L M N O P Q R S T U V W X Y Z

Denied - Too Late tab

Denied, Too Late.
Tabbed by Blink182xxxboy@aol.com.
  
r= ruffled

--3--5--7--8--7--5--
--3--5--7--8--7--5--
--0--0--0--0--0--0--
--0--0--0--0--0--0--      repeat 3x
--r--r--r--r--r--r--
--3--5--7--8--7--5--

-----------------------------------------
-----------------------------------------
-101010101010-141414141414-666666-444444-
-101010101010-141414141414-666666-444444-
- 8 8 8 8 8 8-121212121212-444444-222222-
----------------------------------------- 
:: Ultimate Guitar Archive :: 
http://www.ultimate-guitar.com 

Tap to rate this tab
# A B C D E F G H I J K L M N O P Q R S T U V W X Y Z