Song name
# A B C D E F G H I J K L M N O P Q R S T U V W X Y Z

Denver John - Follow Me tab

BEAT CRUSADERS - FOLLOW ME (Solo)

I hope you like it! i think is correct but I can make some
errors in the fastest parts...

---------------------------------------------------------------|
---------------------------------------------------------------|
-------------------------------------7-------------------------|
------7-8-9--(9)---9-7-5--7/9--(9)-----7-5--7/8--(8)---7-5-----|
-7-10------------------------------------------------------3---|
---------------------------------------------------------------|
             (x5)              (x5)              (x5)


--------------------------------------------------------------|
----------------------------------7-----10b-10b-8-------------|
---------------------------7-9-7---7-9-------------7/9-7-9--7-|
-----5--5/7-5-5--------7-9------------------------------------|
-3-5--------------7-10----------------------------------------|
--------------------------------------------------------------|
                 ( this part is fast )


-------------------------------|
-------------------------------|
-------------------------5-5---|
-7h9h10p7-5--5---1-------5-5---|
---------------------5---3-3---|
-------------------------------|

Tabbed By SSimo.
Tap to rate this tab
 
# A B C D E F G H I J K L M N O P Q R S T U V W X Y Z