Guitaretab - guitar tabs
Song name
# A B C D E F G H I J K L M N O P Q R S T U V W X Y Z

Denver John - My Sweet Lady tab

-------------------------------------------------------------------------------
			     My Sweet Lady- John Denver
-------------------------------------------------------------------------------
Tabbed by: mrscottz
Email:mrscottz@yahoo.com

Tuning:standard

Intro:
              let ring througout whole song
e|-------------9----------------9---------------7-------------7---------|
B|-------------10---------------10--------------8-------------8---------|
G|--------11-------11-------11------11------9-------9-----9------9------|
D|----0-----------------0---------------0--------------0------------0---|
A|----------------------------------------------------------------------|
E|----------------------------------------------------------------------|

                                                        let ring
e|---------5-----------------5---------------3------------3-------|
B|---------7-----------------7---------------3------------3-------|
G|------7-----7-----------7------7--------4------4-----4------4---|
D|-------------------0---------------0--------------0-------------|
A|----------------------------------------------------------------|
E|----------------------------------------------------------------|

Verses

e|-------------9----------------9---------------7-------------7------------|
B|-------------10---------------10--------------8-------------8------------|
G|--------11-------11-------11------11------9-------9-----9------9---------|
D|----0-----------------0---------------0--------------0------------0------|
A|-------------------------------------------------------------------------|
E|-------------------------------------------------------------------------|

1  Lady------------------------ are you cryin'-----------------------do the
2  Lady------------------------are you happy-------------------------do you
3  Lady------------------------are you cryi'n------------------------do the

e|--------5--------------5-------------3---------------3-------------------|
B|--------7--------------7-------------3---------------3-------------------|
G|----7------7--------6-----6-------4------4-------3-------3---------------|
D|---------------0-------------0---------------0---------------0-----------|
A|-------------------------------------------------------------------------|
E|-------------------------------------------------------------------------|

   tears--------- belong to----------me------------------------------did you
   feel-----------the way----------I do----------------------------are there
   tears--------- belong to----------me------------------------------did you

e|--------2----------------2------------2------------2-----|
B|--------3----------------2------------0------------0-----|
G|----2-------2-------2-------2------2-----2------2-----2--|
D|----------------0--------------0------------0------------|
A|---------------------------------------------------------|
E|---------------------------------------------------------|

   think our time--------------------- together was all
   meanings that you've never seen------------------
   think our time--------------------- together was all

e|----------0-------------0------------------2-------------------------|
B|----------0-------------0------------------2----------2-----4-----5--|
G|-------0-----0------0-------0---------2--------2---------------------|
D|----2-----------2-------------------------------------2-----3-----5--|
A|----------------------------------0----------------------------------|
E|---------------------------------------------------------------------|

  gone------------------------------------------------
  beore-----------------------------------------------
  gone------------------------------------------------

e|-------------9----------------9---------------7-------------7------------|
B|-------------10---------------10--------------8-------------8------------|
G|--------11-------11-------11------11------9-------9-----9------9---------|
D|----0-----------------0---------------0--------------0------------0------|
A|-------------------------------------------------------------------------|
E|-------------------------------------------------------------------------|

     Lady------------------------ you've been dreaming----------I'm as close
     Lady-------------------------my sweet lady------------------I just
     Lady-------------------------my sweet lady-----------------'m as close 

e|--------5--------------5-------------3---------------3--------------|
B|--------7--------------7-------------3---------------3--------------|
G|----7------7--------6-----6-------4------4-------3-------3----------|
D|---------------0-------------0---------------0---------------0------|
A|--------------------------------------------------------------------|
E|--------------------------------------------------------------------|
[ Tab from: http://www.guitaretab.com/d/denver-john/5095.html ]
  ------------ as I can be--------------------------------------and I
  ----can't believe it's true----------------------------------and It's
  -------------as I can be--------------------------------------and I

e|---------2------------2-----------0---------2----------|
B|---------3------------2-----------0---------2----------|
G|----2--------2-----2-----2-----0-----0---2------2------|
D|----------------0-----------2--------------------------|
A|-----------------------------------------0-------------|
E|-------------------------------------------------------|

   swear--------- to you our time has just begun
   like I've never ever------- loved before
   swear--------- to you our time has just begun*

e|------2------------2------------2---------------2------|
B|------3------------2------------1---------------1------|
G|---2-----2------2-----2------2-----2---------2-----2---|
D|-------------0-----------0--------------0--------------|
A|-------------------------------------------------------|
E|-------------------------------------------------------|
Chorus:

e|-------------------------------------------------------------|
B|--------0------------0--------------2-----------------2------|
G|--------0------------0--------------2-----------------2------|
D|-----0-----0------0-----0-------2--------2--------2-------2--|
A|-----------------------------0---------------0---------------|
E|--3-----------3----------------------------------------------|

   close your eyes and rest your---------------- weary head

e|------2------------2------------2---------------2------------|
B|------3------------2------------1---------------1------------|
G|---2-----2------2-----2------2-----2---------2-----2---------|
D|-0-----------0-----------0--------------0--------------------|
A|-------------------------------------------------------------|
E|-------------------------------------------------------------|

e|-------------------------------------------------------------|
B|--------0------------0--------------2-----------------2------|
G|--------0------------0--------------2-----------------2------|
D|-----0-----0------0-----0-------2--------2--------2-------2--|
A|-----------------------------0---------------0---------------|
E|--3-----------3----------------------------------------------|

   I promise I will stay right here---------------- beside you

e|------2------------2------------2---------------2------------|
B|------3------------2------------1---------------1------------|
G|---2-----2------2-----2------2-----2---------2-----2---------|
D|-0-----------0-----------0--------------0--------------------|
A|-------------------------------------------------------------|
E|-------------------------------------------------------------|

e|-------------------------------------------------------------|
B|--------0------------0--------------2-----------------2------|
G|--------0------------0--------------2-----------------2------|
D|-----0-----0------0-----0-------2--------2--------2-------2--|
A|-----------------------------0---------------0---------------|
E|--3-----------3----------------------------------------------|

   Today our lives are joined------------------ became entwined 

e|------2------------2------------2---------------2------------|
B|------3------------2------------3---------------2------------|
G|---2-----2------2-----2------2-----2---------2-----2---------|
D|-0-----------0-----------0--------------0--------------------|
A|-------------------------------------------------------------|
E|-------------------------------------------------------------|

e|-------------------------------------------------------------|
B|---------3-----------3-----------3-----------3---------------|
G|---------4-----------4-----------4-----------4---------------|
D|------4-----4-----4-----4-----4-----4-----4-----4------------|
A|--2------------2------------2----------2---------------------|
E|-------------------------------------------------------------|

  and I wish you could know how much I

e|------------------------------------------------------------------------|
B|---------0--------------0--------------2-----------2--------2----4----5-|
G|---------0--------------0--------------2-----------2--------------------|
D|------2-----2-------2-------2-------2-----2------2----2-----2----3----5-|
A|--------------------------------0-------------0-------------------------|
E|--0-------------0-------------------------------------------------------|

  love------------------------- you-----------------------

*=go to last D chord

verse II
chrous
verse III

on the last D chord
                                             let ring 
e|-----------2----3----0----------------0----h2---|
B|--------3--------------------------3------------|
G|-----2--------------------------2---------------|
D|--0--------------------------0------------------|
A|------------------------------------------------|
E|------------------------------------------------|

| /  slide up
| \  slide down
| h  hammer-on
| p  pull-off
| ~  vibrato
| +  harmonic
| x  Mute note
===============================================================================
Related for My Sweet Lady tab
Advertisement will be closed in 10 seconds