Song name
# A B C D E F G H I J K L M N O P Q R S T U V W X Y Z

Depeche Mode - Enjoy The Silence tab

Song: Enjoy the Silence (guitar riffs)
Band: Depeche Mode
Tabber: Jonathan Patrick Davies 

This song's in the of key C# minor and play moderately, with a steady beat.

The intro:

   C#m               E               C#m               E
e|----------------|----------------|----------------|----------------|
B|----------------|----------------|----------------|----------------|
G|------6-----8---|-----6----------|------6-----8---|-----6----------|
D|----------------|------------9---|----------------|------------9---|
A|--7-----7-------|--7-----7-------|--7-----7-------|--7-----7-------|
E|----------------|----------------|----------------|----------------|

   C#m               E               C#m               E
e|----------------|----------------|----------------|----------------|
B|----------------|----------------|----------------|----------------|
G|----------------|-----6----------|----------------|-----6----------|
D|-----7-----6----|------------9---|-----7-----6----|------------9---|
A|----------------|--7-----7-------|----------------|--7-----7-------|
E|--9-----7-------|----------------|--9-----7-------|----------------|

Next comes the synth lead bridge:
   F#m               A               C#m              B/E
e|----------------|----------------|----------------|----------------|
B|----------------|----------------|----------------|----------------|
G|-----6------8---|-----9----------|----------------|----------------|
D|----------------|------------9---|-----9-----6----|-----9-----6----|
A|--7-----7-------|--7-----7-------|--7-----7-------|--7-----7-------|
E|----------------|----------------|----------------|----------------|

And you just repeat it to the end. That's it! Enjoy (the guitar tab)
Tap to rate this tab
# A B C D E F G H I J K L M N O P Q R S T U V W X Y Z