Song name
# A B C D E F G H I J K L M N O P Q R S T U V W X Y Z

Depeche Mode - In Your Room tab

                                 IN YOUR  ROOM
                                   writes by
                                 Giulio Moroni

e---4-----1-0---1---0------------|
b-2-------------------2----------|
g------3------3---3--------------|  x9 times
d--------------------------------|
a--------------------------------|
E--------------------------------|

---2---2-4---2---2-4---4---1-0---|
-2---2-----2---2-----2-----------|
-------------------------3-----3-|
---------------------------------|
---------------------------------|
---------------------------------|

-0-----2---2-4---2---2-4--------|
---2-2---2-----2---2------------|
--------------------------------|
--------------------------------|
--------------------------------|
--------------------------------|

---1---1-3----------|
-1---1--------------|
--------------------| x5 times
--------------------|
--------------------|
--------------------|
Tap to rate this tab
 
# A B C D E F G H I J K L M N O P Q R S T U V W X Y Z