Deportivo - La Salade tab

Déportivo

		La Salade


Riff :

E||--1--x-0-1--0-----------0--||
B||--3--x-x-3--3--1--0--2-----||
G||--2--x---2--2--2--0--2-----||
D||--0--x-x-0--0--3-----2-----||
A||---------------3-----0-----||
E||---------------1-----------||  X4 




Couplet 1 :

A
	Ma soeur est née dans une salade
	Dm
	Mon père cultive la panade, 
	C
	moi je grandis en m'énervant
	F             A
	Les g'noux niqué évidement  




Refrain ->  Riff 

Mais qu'on prennent qui voudra
manger j' n'digère pas 
vois c'qu'ils me servent
vois c'qu'ils me servent
je n'veux plus renter chez moi
Si on m'retiens je n' reviens pas,  et toi
je n'veux plus renter chez moi
je n' reviens pas tu sait, je n' reviens pas


Couplet 2 : 

j'm suis réfugier à la cave 
j'ai découvert sur le champs
des convulsions et une cascade
tous ça m'ennuie péniblement

refrain


Break 1 :
              
     G                                                
E||--------------------------|----------------------||
B||--------------------3-----|----------------------||
G||--4-----4-----------4-----|--2----4----6----7----||
D||--5-----5-----------5-----|----------------------||
A||--5-----5-----------5-----|----------------------||
E||--3--3--3--3--3--3--3--3--|----------------------|| X 2


Reprise couplet 1 sans la distortion.


Break 2 :

     Dm                                                  
E||--------------------------|--------------------------|
B||--6--6--6--6--6--6--6--6--|--6--6--6--6--6--6--6--6--|
G||--7--7--7--7--7--7--7--7--|--7--7--7--7--7--7--7--7--|
D||--7--7--7--7--7--7--7--7--|--7--7--7--7--7--7--7--7--|
A||--5--5--5--5--5--5--5--5--|--5--5--5--5--5--5--5--5--|
E||--------------------------|--------------------------|
    f                       f                                  
E||-----------------------|---------------------|
B||-----------------------|---------------------|
G||--------2--------2--2--|--------2------------|
D||-----3-----------------|-----3---------------|
A||--3--------------------|---------------------|
E||--1--------------------|--0------------------|

Riff X4

Puis solo :


    Tremolo sur les deux 
E||----------------------||
B||--15------------14----||
G||----------------------||
D||----------------------||
A||----------------------||
E||----------------------|| X 4

On finit sur 2 mesure en Ré (D)



**************

Paroles :

**************


Couplet 1 :
Ma soeur est née dans une salade
Mon père cultive la panade, 
moi je grandis en m'énervant
Les g'noux niqué évidement  

Refrain :
Mais qu'on prennent qui voudra
manger j' n'digère pas 
vois c'qu'ils me servent
vois c'qu'ils me servent
je n'veux plus renter chez moi
Si on m'retiens je n' reviens pas,  et toi
je n'veux plus renter chez moi
je n' reviens pas tu sait, je n' reviens pas

Couplet 2 :
j'm suis réfugier à la cave  
j'ai découvert sur le champs
des convulsions et une cascade
tous ça m'ennuie péniblement

Refrain 
Couplet 1


Tabler par gwendal.mollo@orange.fr
Tap to rate this tab
 
# A B C D E F G H I J K L M N O P Q R S T U V W X Y Z