Song name
# A B C D E F G H I J K L M N O P Q R S T U V W X Y Z

Derek And The Dominos - Layla tab

Help us improve GuitareTab! Take a short survey!
x2

e-------------------------10h13p10(let ring)--------------------------------|
B--------------------10h13--------------------------------------------------|
G---------------------------------------------------------------------------|
D---------------------------------------------------------------------------|
A---------------------------------------------------------------------------|
E---------------------------------------------------------------------------|

e--------10h13p10-----15--13--12------10------------------------------------|
B---10h13-------------------------13----------------------------------------|
G---------------------------------------------------------------------------|
D---------------------------------------------------------------------------|
A---------------------------------------------------------------------------|
E---------------------------------------------------------------------------|

e--------10h13p10-----17--15--12------10------------------------------------|
B---10h13-------------------------13----------------------------------------|
G---------------------------------------------------------------------------|
D---------------------------------------------------------------------------|
A---------------------------------------------------------------------------|
E---------------------------------------------------------------------------|

e--------10h13p10-----15--13--12------10------------------------------------|
B---10h13-------------------------13----------------------------------------|
G---------------------------------------------------------------------------|
D---------------------------------------------------------------------------|
A---------------------------------------------------------------------------|
E---------------------------------------------------------------------------|

e--------10h13p10-----17--15--12------9~~~~~~~~~----------------------------|
B---10h13-------------------------13----------------------------------------|
G---------------------------------------------------------------------------|
D---------------------------------------------------------------------------|
A---------------------------------------------------------------------------|
E---------------------------------------------------------------------------|

Then comes the verse which I am not going to tab.

tabbedbyj
Related for Layla tab