Guitaretab - guitar tabs
Song name
# A B C D E F G H I J K L M N O P Q R S T U V W X Y Z

Desperation Band - Freedom Song tab

Freedom Song (Electric)
Desperation Band

Intro (2x)
------------------------------------------|
------------------------------------------|
-------3-4-------3-4--------3-4-----3-4---|
----------------------2-2-------2-2-------|
-2-2--------2-2---------------------------|
------------------------------------------|

------------------------------------------|
--------------------------------2---------|
------4-3------4-3--------3-4-----4-3-4---|
-4-4------4-4--------2-2------------------|
------------------------------------------|
------------------------------------------|
Verse
Do you want to go to the place they call freedom?
Do you want to see like the free see?
Do you want to dance in the land they call freedom?
Do you want to go? Do you want to go?
B             F#m      G#m              E
Do you want to go to the place they call freedom?
B              F#m         G#m      E
Do you want to see like the free see?
B              F#m          G#m             E
Do you want to dance in the land they call freedom?
F#m               E                   C#m
Do you want to go? Do you want to go? Yes, I want to go
[ Tab from: http://www.guitaretab.com/d/desperation-band/152191.html ]
Chorus
B           E               F#m
Jesus, come take us to the foot of the cross
      E                       B           G#m
Where we have been bought now freedom is ours
          F#m            E
We take it up, we take it up
B           E          F#m
Jesus, come make us a free generation
E                   B          G#m
Spreading salvation freedom is ours
           F#m            E
We take it up, we take it up we take it up

Intro (1x)

Verse

Chorus

Bridge
[----------------------------------------]
[----------First time only---------------]
[----------------------------------------]
[----------------------------------------]
[--2-2-4-2-2-2-4-2-2-2-4-24h5p4-2-------]
[----------------------------------------]

-------------------------|
-------------------------|
-------------------------|
-------------------------|
-------------------------|
--4-4-7-4-4-4-7-4-4-4----|

-------------------------------------|
-------------------------------------|
-------------------------------------|
-------------------------------------|
------------------4-------4----------|
-7-4-7h9p7-4--2--2-2-2--2-2-2--------|


-----------------------------|
-----------------------------|
-----------------------------|
-----------------------------|
--4-4h5p4-2-----1h2---2p1----|
-2-2---------0-0---0-0-------|

------------------------------|
------------------------------|
------------------------------|
------------------------------|
----1h2h4-2-1-2---------------|
-0-0--------------------------|

------------------------------|
------------------------------|
------------------------------|
----4-----4-----4-4s6s4s2-----|
-2-2-2-2-2-2-2-2-2------------|
------------------------------|

Bridge (4x Repeat above)
B                      G#m
Freedom for the world, freedom for a generation
F#m                         E
Let us call to every nation come

Chorus (First half nothing but drums)

Ending (Play Intro 2x)
We take it up, we take it up our freedom
Related for Freedom Song tab