Song name
# A B C D E F G H I J K L M N O P Q R S T U V W X Y Z

Desperation - I Am Free tab

I Am Free – Michael Gungor (Battle Cry Album)

(Intro)
e----------------------------------------------------------|
B—---10-10-10-8-8---8h10-7---7-----7h8p7-------8p7---------|
G---7-------------7--------7---7h9-------7h9p7-----9p7-----|
D----------------------------------------------------------|
A----------------------------------------------------------|
E----------------------------------------------------------|

e----------------------------------------------------------|
B--10---10-8---8-8h10-7---7-----7h8p7-------8p7------------|
G-----7------7----------7---7h9-------7h9p7-----9p7--------|
D----------------------------------------------------------|
A----------------------------------------------------------|
E----------------------------------------------------------|

e-----------------------------------------------------------|
B--8---8-7-7---8-5-5-5-5-5-5-55h7---------------------------|
G----7-------7-------------------7h9p7----------------------|
D-----------------------------------------------------------|
A-----------------------------------------------------------|
E-----------------------------------------------------------|

e----------------------------------------------------------|
B--8-8-8-7---7-8-5-5-5-5-5-5-5-5-5\------------------------|
G----------7-----------------------7~~~--------------------|
D----------------------------------------------------------|
A----------------------------------------------------------|
E----------------------------------------------------------|

(Chorus)
e----------------------------------------------------------|
B—10-10-10-8-8-8-7-7-7-8-8-8-7-7-8-7-(x2)------------------|
G----------------------------------------------------------|
D----------------------------------------------------------|
A----------------------------------------------------------|
E----------------------------------------------------------|

e----------------------------------------------------------|
B--8-8-8-7-7-7-5-5-5---------------------------------------|
G--------------------7-7-7-4-4-7-4-(x2)--------------------|
D----------------------------------------------------------|
A----------------------------------------------------------|
E----------------------------------------------------------|

 (x=palm mute the same note)
e-------------------------------------------|
B-------------------------------------------|
G—7/9xx9p7xx7/9xx9p7xx7/9xx9p7xx7/9xx9p7xx--
D-------------------------------------------|
A-------------------------------------------|
E-------------------------------------------|


e--10-1010--1010-1010-10101010--10-10xx10-xxx10-xx-10-10xx-|
B--7--7-8---8-10-1010-10101010--10-10xx10-xxx10-xx-10-10xx-|
G--7--7-7---7-7--7-7--7-7-7-7---7--7-xx7—-xxx7--xx-7--7-xx-|
D----------------------------------------------------------|
A----------------------------------------------------------|
E----------------------------------------------------------|

e-10-xxx10-xx-10-10xx10-xxx10-xx-10-10xx10-xxx—-|
B-10-xxx10-xx-10-10xx10-xxx10-xx-10-10xx10-xxx--|
G-7—-xxx7--xx-7--7-xx7—-xxx7--xx-7—-7-xx7—-xxx--|
D-----------------------------------------------|
A-----------------------------------------------|
E-----------------------------------------------|

e----------------------------------------------------------|
B—10-10-10-8-8-8-7-7-7-8-8-8-7-7-8-7-(x2)------------------|
G----------------------------------------------------------|
D----------------------------------------------------------|
A----------------------------------------------------------|
E----------------------------------------------------------|

e----------------------------------------------------------|
B--8-8-8-7-7-7-5-5-5---------------------------------------|
G--------------------7-7-7-4-4-7-4-(x2)--------------------|
D----------------------------------------------------------|
A----------------------------------------------------------|
E----------------------------------------------------------|

 (x=palm mute the same note)
e-------------------------------------------|
B-------------------------------------------|
G—7/9xx9p7xx7/9xx9p7xx7/9xx9p7xx7/9xx9p7xx--
D-------------------------------------------|
A-------------------------------------------|
E-------------------------------------------|


e--10-1010--1010-1010-10101010--10-10xx10-xxx10-xx-10-10xx-|
B--7--7-8---8-10-1010-10101010--10-10xx10-xxx10-xx-10-10xx-|
G--7--7-7---7-7--7-7--7-7-7-7---7--7-xx7—-xxx7--xx-7--7-xx-|
D----------------------------------------------------------|
A----------------------------------------------------------|
E----------------------------------------------------------|

e-10-xxx10-xx-10-10xx10-xxx10-xx-10-10xx10-xxx—0~~~~~~~~~~-|
B-10-xxx10-xx-10-10xx10-xxx10-xx-10-10xx10-xxx—3~~~~~~~~~~-|
G-7—-xxx7--xx-7--7-xx7—-xxx7--xx-7—-7-xx7—-xxx-2~~~~~~~~~~-|
D----------------------------------------------0~~~~~~~~~~-|
A----------------------------------------------------------|
E----------------------------------------------------------|

e—---------------0~~~~~~~~---------------------0~~~~~~~~----|
B-3~~~~~~~~~~--3~~~~~~~~~~~---------------------------------|
G------------0~~~~~~~7~~~~~7~~~7~~~~~~~~~~~~~7~~~~~~~~~~----|
D----4~~~~~~~----------7-5~~~4~~~0~~~~~~~~~~~---------------|
A-----------------------------------------------------------|
E-----------------------------------------------------------|
                                  (Harmonics)
e------------------0~~~~~~~----------------12--------------|
B------3~~~~~~-------3~~~~~~------7------------------------|
G----0~~~~~~~~---------2~~~~~~~------7---------------------|
D—-4~~~~~~~~~~--------------------------7------------------|
A----------------------------------------------------------|
E----------------------------------------------------------|

That's all I got so far. If someone can figure out the note after that last hamonic 
lemme know. Thanks.
Tap to rate this tab
# A B C D E F G H I J K L M N O P Q R S T U V W X Y Z