Song name
# A B C D E F G H I J K L M N O P Q R S T U V W X Y Z

Destinys Child - Survivor tab

Destiny's Child, Survivor.
 Tabbed by Hiromi onyx@glay.org.
  
Survivor by Destiny's Child

I'm not really sure about the chords, but I think the tabs are as close as I can get.


The whole song repeats the same set of chords and tabs.



    G#m              E
E[----------------------------12-----------]
B[--9---9-11-12-11-9-----9-12----12-9---9--]
G[----8--------------8-9--------------9----]
D[-----------------------------------------]
A[-----------------------------------------]
E[-----------------------------------------]



    Eb                 G#m      Eb
E[---------11--------------------------11--]
B[----8-11----11-8---8-9---9-11---8-11-----]
G[--8--------------8-----8------8----------]
D[-----------------------------------------]
A[-----------------------------------------]
E[-----------------------------------------]

 
:: Ultimate Guitar Archive :: 
http://www.ultimate-guitar.com 



Tap to rate this tab
# A B C D E F G H I J K L M N O P Q R S T U V W X Y Z