Destruction Of A King - Dirty Diana tab

-------------------------------------------------------------------------------
		Dirty Diana- Destruction Of A King
-------------------------------------------------------------------------------
Tabbed by: Crispy Chris Bitch.
Email:planc714@yahoo.com

I'm really fucking bored in 5th period so imma tab out this sexy ass song. 
If there's any mistakes I really don't give a fuck because I already know how to 
play it so, blow me.

Tuning:Drop C Bitches
Intro
0:00-0:25
e|---------------------------------------------------------------------------|
B|---------------------------------------------------------------------------|
G|---------------------------------------------------------------------------|
D|---------------------------------------------------------------------------|
A|---------------------------------------------------------------------------|
E|-0--0--6--0--0--6--0--0--6--0--6--0--6-x8----------------------------------|

0:25-0:37
e|---------------------------------------------------------------------------|
B|---------------------------------------------------------------------------|
G|---------------------------------------------------------------------------|
D|---------------------------------------------------------------------------|
A|---------------------------------------------------------------------------|
E|-0--0--6--0--0--5--0--0--4--0--0--3--0--0--2--x4---------------------------|

0:38-0:50
e|---------------------------------------------------------------------------|
B|---------------------------------------------------------------------------|
G|---------------------------------------------------------------------------|
D|---------------------------------------------------------------------------|
A|-0--0--6--0--0--6--0--0--6--0--6--0--6-------------------------------------|
E|-0--0--6--0--0--6--0--0--6--0--6--0--6-x4----------------------------------|

0:51-1:09 I made Diana go OH! <3
Figure out strumming yourself bitch.
e|---------------------------------------------------------------------------|
B|---------------------------------------------------------------------------|
G|---------------------------------------------------------------------------|
D|--0--0--0--0--0--0--0--0--0------------------------------------------------|
A|--0--0--0--0--0--0--0--0--0------------------------------------------------|
E|--0--0--0--0--0--0--0--0--0------------------------------------------------|

1:11-1:19 
Figure strumming out.
e|---------------------------------------------------------------------------|
B|---------------------------------------------------------------------------|
G|---------------------------------------------------------------------------|
D|-0--0--0--0--0--0--0--0--0-------------------------------------------------|
A|-0--0--0--0--0--0--0--0--0-------------------------------------------------|
E|-1--1--1--1--1--1--1--1--1-------------------------------------------------|

1:20-1:25
e|---------------------------------------------------------------------------|
B|---------------------------------------------------------------------------|
G|---------------------------------------------------------------------------|
D|--0~--8---8---0~--8---8----------------------------------------------------|
A|--0~--8---8---0~--x---x----------------------------------------------------|
E|--0~--6---6---0~--6---6----------------------------------------------------|

1:25-1:52
Figure out srumming youself.
e|---------------------------------------------------------------------------|
B|---------------------------------------------------------------------------|
G|---------------------------------------------------------------------------|
D|-8-/-6-0-0-0-0-0-0-0-0-0-0-0-8-/-6-0-5--5/-7-------------------------------|
A|-x-/-x-0-0-0-0-0-0-0-0-0-0-0-x-/-x-0-x--x/-x-------------------------------|
E|-6-/-4-0-0-0-0-0-0-0-0-0-0-0-6-/-4-0-3--3/-5----x7-------------------------|

1:53-2:05
Play first part 3 times before playing second part.
After playing it twice strum an open C G C (Top 3 strings)to lead into the next part, bitch.
e|---------------------------------------------------------------------------|
B|---------------------------------------------------------------------------|
G|---------------------------------------------------------------------------|
D|-0-0-0-0-0-8-/-6-6-6-6-|x3-then--10-10-10-10-10--8-8-8------0~-------------|
A|-0-0-0-0-0-x-/-x-x-x-x-|----------x--x--x--x--x--x-x-x------0~-------------|
E|-0-0-0-0-0-6-/-4-4-4-4-|----------8--8--8--8--8--6-6-6-x2---0~-------------|

2:11-2:49
Figure strumming out.
e|---------------------------------------------------------------------------|
B|---------------------------------------------------------------------------|
G|---------------------------------------------------------------------------|
D|--3-2-0-0-0-0-0-0-0--3-2-0-6-0-5-------------------------------------------|
A|--3-2-0-0-0-0-0-0-0--3-2-0-6-0-5-------------------------------------------|
E|--3-2-0-0-0-0-0-0-0--3-2-0-6-0-5-------------------------------------------|

2:54-3:19
Just play this to the end of the song.
Figure out strumming yourself.
e|---------------------------------------------------------------------------|
B|---------------------------------------------------------------------------|
G|---------------------------------------------------------------------------|
D|-0-0-0-0-0-0-0-0-0-0-0-0-0-0-0-0-0-0-0-0-0---------------------------------|
A|-0-0-0-0-0-0-0-0-0-0-0-0-0-0-0-0-0-0-0-0-0---------------------------------|
E|-1-1-1-1-1-1-1-1-1-1-1-1-1-1-1-1-1-1-1-1-1---------------------------------|

************************************

| /   slide up
| \   slide down
| h   hammer-on
| p   pull-off
| ~   vibrato
| +   harmonic
| x   Mute note
| b   Bend
| pb  Pre-bend
| br  Bend release
| pbr Pre-bend release
| brb Bend release bend

************************************
Tap to rate this tab
 
# A B C D E F G H I J K L M N O P Q R S T U V W X Y Z