Guitaretab - guitar tabs
Song name
# A B C D E F G H I J K L M N O P Q R S T U V W X Y Z

Detroit Cobras - Cha Cha Twist tab

Cha Cha Twist by The Detroit Cobras
from Jackass The Movie Soundtrack

                          x7
e--------------------------|
B--------------------------|
G-44-xx-77-xx-99-xx-77-xx--|
D-44-xx-77-xx-99-xx-77-xx--|
A-22-xx-55-xx-77-xx-55-xx--|
E--------------------------|
[ Tab from: http://www.guitaretab.com/d/detroit-cobras/115729.html ]
0.36
e-------------------|
B-------------------|
G-4-4-4-4-4-4-4-4-4-|
D-4-4-4-4-4-4-4-4-4-|
A-2-2-2-2-2-2-2-2-2-|
E-------------------|

1.18
e---------------------|
B-13-11---------------|
G-------12-11-10-8----|
D------------------10-|
A---------------------|
E---------------------|

CHORUS
e---------------------------|
B---------------------------|
G-9-9-9-9-9-9-9-9-----------|
D-9-9-9-9-9-9-9-9-----------|
A-7-7-7-7-7-7-7-7---------7-|
E-----------------10-7-10---|

Any corrections please comment
Thanks
Related for Cha Cha Twist tab
Advertisement will be closed in 10 seconds