Song name
# A B C D E F G H I J K L M N O P Q R S T U V W X Y Z

Deus - Thirteen tab

Thirteen -  dEUS

tab by Avi

capo on the second fret, the notes Aren’t relative to the capo but as 
they are with or without one, I hope u will figure it out, 
believe in yourself ! :-))

() = the notes u put your fingers on

Intro/Verse - 
    A          D         
e|----------------------------|
B|-------2-------(3)-------2--|
G|-------2--------2--------2--|
D|-----2----2--------2h(4)----|
A|------------(5)-------------|
E|-(5)------------------------|

then...
e|-------------------------|--2---2---2--|---2---2---2--(5)--|
B|-------2------------2--2-|-(3)--2--(3)-|--(3)--2--(3)-(3)--|
G|-------2-----------(4)-2-|--2---2--(4)-|--(4)-(4)-(4)-(4)--|
D|-----2-------------------|-(4)-(4)-(4)-|--(4)-(4)-(4)-(4)--|
A|---------------(4)-------|-(5)-(4)--2--|---2---2---2---2---|
E|-(5)-----(5)-2-----------|-------------|-------------------|

and then...
   F#m    Bm   F#m    Bm     
e|--2--|--2--|--2--|--2--|---2---2---2--(5)--|
B|--2--|-(3)-|--2--|-(3)-|--(3)--2--(3)-(3)--|
G|--2--|-(4)-|--2--|-(4)-|--(4)-(4)-(4)-(4)--|
D|-(4)-|-(4)-|-(4)-|-(4)-|--(4)-(4)-(4)-(4)--|
A|-(4)-|--2--|-(4)-|--2--|---2---2---2---2---|
E|--2--|-----|--2--|-----|-------------------|

and...
e|-(4)-|--2--|-(5)-|-(4)-|--2--|
B|-(5)-|-(5)-|-(5)-|-(5)-|-(5)-|
G|-(4)-|-(4)-|-(4)-|-(4)-|-(4)-|
D|--2--|--2--|--2--|--2--|--2--|
A|-----|-----|-----|-----|-----|
E|-----|-----|-----|-----|-----|

then just repeat the parts I wrote and then...

Solo - 
   _______________
  /  three times  \
e|-(7)-(7)-(7)-(5)-|-----------------------------|
B|--2---2---2---2--|-------(2/3)-(3/5)-(5/7)-(7)-|
G|--2---2---2---2--|-2--2---2-2---2-2---2-2---2--|
D|-----------------|-2--2---2-2---2-2---2-2---2--|
A|-----------------|-2h(4)-(4/5)-(5/7)-(7/9)-(9)-|
E|-----------------|-2--2---2-2---2-2---2-2---2--|

e|-(7)-(7)-(7)-(5)-|-(12)-(12)-(12)-(9)-|-(5)-(5)-(5)-(5)-|
B|--2---2---2---2--|---2----2----2---2--|--2---2---2---2--|
G|--2---2---2---2--|---2----2----2---2--|--2---2---2---2--|
D|-----------------|--------------------|-----------------|
A|-----------------|--------------------|-----------------|
E|-----------------|--------------------|-----------------|

e|-(9)-(9)-(9)-(9)-|-(5)-(5)-(5)-(4)-|-(9)-(9)-(9)-(7)-|
B|--2---2---2---2--|-(5)-(5)-(5)-(5)-|--2---2---2---2--|
G|--2---2---2---2--|-(4)-(4)-(4)-(4)-|--2---2---2---2--|
D|-----------------|--2---2---2---2--|-----------------|
A|-----------------|-----------------|-----------------|
E|-----------------|-----------------|-----------------|

e|-(14)-(14)-(14)-(12)-|-(10)-(9)-(7)-(5)-(4)-------------|
B|--2----2----2----2---|--2----2---2---2---2--(7)-(5)-(3)-|
G|--2----2----2----2---|--2----2---2---2---2---2---2---2--|
D|---------------------|----------------------------------|
A|---------------------|----------------------------------|
E|---------------------|----------------------------------|

Outro - 
e|-(5)-(5)-(5)--------------|
B|-(5)-(5)-(5)--------------|
G|--2---2---2--on & on ...--|
D|-(4)--2--(4)--------------|
A|-(4)--2--(5)--------------|
E|--------------------------|

Last Chord of the song - 
e|--(5)--|
B|--(5)--|
G|---2---|
D|---2---|
A|--(4)--|
E|--(5)--|

*and Tom just plays the ‘kinda’ chords sometimes (but not always).

beautiful song ! :-)
Tap to rate this tab
 
# A B C D E F G H I J K L M N O P Q R S T U V W X Y Z