Song name
# A B C D E F G H I J K L M N O P Q R S T U V W X Y Z

Dev - In The Dark tab

This is the tab for the melody parts in DEV's "In the Dark" single.

Here is the intro:

|-----------------------------------|----------------------------------------------|
|-----------------------------------|----------------------------------------------|
|-----------------12----------------|-----------------12---------------------12----|
|--10--10--10--10----13--13--12--12-|--10--10--10--10----13--13--12-------12----12-|
|-----------------------------------|-------------------------------10h13----------|
|-----------------------------------|----------------------------------------------|

And here is the catchy melody played in the chorus and bridge (Listen to the song
for timing of notes):

|------------------|-------------------------------------|----------------------------|
|--12--12--12--12--|--13------------------------------11-|--13------------------------|
|------------------|------12-----------------------------|------12--------------------|
|------------------|----------12-13-------------12-13----|----------12-13-------------|
|------------------|----------------10-11--11------------|----------------10-11--11---|
|------------------|-------------------------------------|----------------------------|

|--10h11p10------|
|-----------13-11|
|----------------|
|----------------|
|----------------|
|----------------|
Tap to rate this tab
# A B C D E F G H I J K L M N O P Q R S T U V W X Y Z