Song name
# A B C D E F G H I J K L M N O P Q R S T U V W X Y Z

Devendra Banhart - Lover tab

-----------------------------------------------------------------------------
			LOVER - Devendra Banhart & The Grogs
-----------------------------------------------------------------------------

Tabbed by: chorillos
Email: b.merida@hotmail.com


Tuning: EADGBe

Alot of these tabs get close but aren't spot on, so here's how I think it goes.

Intro:
e|--------------------------------------------------------------------------|
B|--------------------------------------------------------------------------|
G|--------------------------------------------------------------------------|
D|---------5-5-5------------------------------------------------------------|
A|----5-7---------7-5----------3-3-3---3-5-5---5----------------------------|
E|---------------------3---3-5-------5-------5------------------------------|

Verse:

These chords are strummed up and down and have muted notes in between. Listen to the 
for timing.

      G      Am      Am9    Am
e|----3-------5------7-------5-----------------------------------------|
B|----3-------5------5-------5-----------------------------------------|
G|----4-------5------5-------5-----------------------------------------|
D|----5-------7------5-------7-----------------------------------------|
A|----5-------7------7-------7-----------------------------------------|
E|----3-------5------5-------5-----------------------------------------|

"Wait a minute..."
      G      Am
e|----3~------------5~----------------------------------------------------|
B|----3~------------5~----------------------------------------------------|
G|----4~---(hold)---5~---(hold)-------------------------------------------|
D|----5~------------7~----------------------------------------------------|
A|----5~------------7~----------------------------------------------------|
E|----3~------------5~----------------------------------------------------|

Bridge: "Just let me do my thing..."

      G        Am        D
e|----3---------5---------10------------------------------------------------|
B|----3---------5---------10------------------------------------------------|
G|----4---X4----5---X8----11---X4-------------------------------------------|
D|----5---------7---------12------------------------------------------------|
A|----5---------7---------12------------------------------------------------|
E|----3---------5---------10------------------------------------------------|
Tap to rate this tab
 
# A B C D E F G H I J K L M N O P Q R S T U V W X Y Z