Song name
# A B C D E F G H I J K L M N O P Q R S T U V W X Y Z

Devil Makes Three - For My Family tab

-------------------------------------------------------------------------------
                             For My Family - Devil Makes Three
-------------------------------------------------------------------------------
Tabbed by: Danny Boy

So this is the basic riffs to the song. There are some little filler notes here and 
there but you can figure those and the rhythm out by listening to the album.

Tuning: Standard

Verses:
e|-----------------------------------------------------------------------------|
B|-----6---------6---------0-------------1-------------------------------------|
G|-----7---------7---------0-------------0-------------------0-----------------|
D|------------------------------------------------2--0--0h2--------------------|
A|--5-------5---------5-------------3---------3--------------------------------|
E|-----------------------------------------------------------------------------|


Chorus: Do the same finger picking style but hit whatever notes sound good to you....
e|---------3--------1-------3------1-----3---1-------------------------------|
B|---------0--------0-------0------0-----0---0-------------------------------|
G|---------------------------------------------------------------------------|
D|---------------------------------------------------------------------------|
A|---------------------------------------------------------------------------|
E|----3--------3--------3-------3------3---3---------------------------------|

e|-----------------------------------------------------------------------------|
B|-------1------5-------1------5------1----1-----------------------------------|
G|-------2------5-------2------5------2----2-----------------------------------|
D|-----------------------------------------------------------------------------|
A|--0-------0-------0------0-------0----0--------------------------------------|
E|-----------------------------------------------------------------------------|

e|---------3--------1-------3------1-----3---1-------------------------------|
B|---------0--------0-------0------0-----0---0-------------------------------|
G|---------------------------------------------------------------------------|
D|---------------------------------------------------------------------------|
A|---------------------------------------------------------------------------|
E|----3--------3--------3-------3------3---3---------------------------------|

e|---------------------------------------------------------------------------|
B|-----6---------6---------0-------------1--------1-------0------------------|
G|-----7---------7---------0-------------0--------0-------0------------------|
D|---------------------------------------------------------------------------|
A|--5-------5---------5-------------3---------3--------3---------------------|
E|---------------------------------------------------------------------------|

e|---------3--------1-------3------1-----3---1-------------------------------|
B|---------0--------0-------0------0-----0---0-------------------------------|
G|---------------------------------------------------------------------------|
D|---------------------------------------------------------------------------|
A|---------------------------------------------------------------------------|
E|----3--------3--------3-------3------3---3---------------------------------|




************************************

| /   slide up
| \   slide down
| h   hammer-on
| p   pull-off
| ~   vibrato
| +   harmonic
| x   Mute note
| b   Bend
| pb  Pre-bend
| br  Bend release
| pbr Pre-bend release
| brb Bend release bend

************************************
Tap to rate this tab
# A B C D E F G H I J K L M N O P Q R S T U V W X Y Z