Song name
# A B C D E F G H I J K L M N O P Q R S T U V W X Y Z

Devin Townsend - Truth tab

Song - Truth
Artist - Devin Townsend
Album - Infinity (1998)

Tabbed by Duke_Lukem


Section 1

E|--------------------|-------------------|--------------------|-------------------|
C|--------------------|-------------------|--------------------|-------------------|
G|--------12-------12-|-------12-------12-|--------12-------12-|-------12-------12-|
C|-----12-------12----|----12-------12----|-----12-------12----|----12-------12----|
G|-13--------13-------|-15-------15-------|-13--------13-------|-15-------15-------|
C|--------------------|-------------------|--------------------|-------------------|

E|--------------------|-------------------|--------------------|-------------------|
C|--------------------|-------------------|--------------------|-------------------|
G|--------12-------12-|-------12-------12-|--------12-------12-|-------12******-12*|
C|-----12-------12----|----12-------12----|-----12-------12----|----12******-12***-|
G|-13--------13-------|-15-------15-------|-13--------13-------|-15******-15******-|
C|--------------------|-------------------|--------------------|-------------------|

Section 2
P.M*********         P.M*********         P.M*********        P.M*********
E|--------------------|--------------------|-------------------|-------------------|
C|--------------------|--------------------|-------------------|-------------------|
G|--------------------|--------------------|-------------------|-------------------|
C|--------------------|--------------------|-------------------|-------------------|
G|-0-0--0--0-13-13-13-|-0-0--0--0-13-13-13-|-0-0--0--0-9--9--9-|-0-0--0--0-9--9--9-|
C|-0-0--0--0-8--8--8--|-0-0--0--0-8--8--8--|-0-0--0--0-4--4--4-|-0-0--0--0-4--4--4-|

P.M*********         P.M*********         P.M*********        P.M*********
E|--------------------|--------------------|-------------------|-------------------|
C|--------------------|--------------------|-------------------|-------------------|
G|--------------------|--------------------|-------------------|-------------------|
C|--------------------|--------------------|-------------------|-------------------|
G|-0-0--0--0-13-13-13-|-0-0--0--0-13-13-13-|-0-0--0--0-9--9--9-|-0-0--0--0-9--9--9-|
C|-0-0--0--0-8--8--8--|-0-0--0--0-8--8--8--|-0-0--0--0-4--4--4-|-0-0--0--0-4--4--4-|

P.M*********         P.M*********         P.M*********        P.M*********
E|--------------------|--------------------|-------------------|-------------------|
C|--------------------|--------------------|-------------------|-------------------|
G|--------------------|--------------------|-------------------|-------------------|
C|--------------------|--------------------|-------------------|-------------------|
G|-0-0--0--0-13-13-13-|-0-0--0--0-13-13-13-|-0-0--0--0-9--9--9-|-0-0--0--0-9--9--9-|
C|-0-0--0--0-8--8--8--|-0-0--0--0-8--8--8--|-0-0--0--0-4--4--4-|-0-0--0--0-4--4--4-|

P.M*********        P.M*********        P.M*********        P.M*********
E|-------------------|-------------------|-------------------|-------------------|
C|-------------------|-------------------|-------------------|-------------------|
G|-------------------|-------------------|-------------------|-------------------|
C|-----------6--6--6-|-----------6--6--6-|-----------9--9--9-|-----------9--9--9-|
G|-0-0--0--0-4--4--4-|-0-0--0--0-4--4--4-|-0-0--0--0-4--4--4-|-0-0--0--0-4--4--4-|
C|-0-0--0--0-4--4--4-|-0-0--0--0-4--4--4-|-0-0--0--0-4--4--4-|-0-0--0--0-4--4--4-|


P.M*********        P.M*********        P.M*********        P.M*********
E|-------------------|-------------------|-------------------|-------------------|
C|-------------------|-------------------|-------------------|-------------------|
G|-------------------|-------------------|-------------------|-------------------|
C|-----------6--6--6-|-----------6--6--6-|-----------9--9--9-|-----------9--9--9-|
G|-0-0--0--0-4--4--4-|-0-0--0--0-4--4--4-|-0-0--0--0-4--4--4-|-0-0--0--0-4--4--4-|
C|-0-0--0--0-4--4--4-|-0-0--0--0-4--4--4-|-0-0--0--0-4--4--4-|-0-0--0--0-4--4--4-|

Section 3

E|-------------------|-------------------|-------------------|-------------------|
C|-------------------|-------------------|-------------------|-------------------|
G|-------------------|-------------------|-------------------|-------------------|
C|-----------4--4--4-|-----------4--4--4-|-----------4--4--4-|-----------4--4--4-|
G|-2-2--2--2-2--2--2-|-2-2--2--2-2--2--2-|-0-0--0--0-0--0--0-|-0-0--0--0-0--0--0-|
C|-2-2--2--2-2--2--2-|-2-2--2--2-2--2--2-|-0-0--0--0-0--0--0-|-0-0--0--0-0--0--0-|

E|-------------------|-------------------|-------------------|-------------------|
C|-------------------|-------------------|-------------------|-------------------|
G|-------------------|-------------------|-------------------|-------------------|
C|-----------4--4--4-|-----------4--4--4-|-----------4--4--4-|-----------4--4--4-|
G|-2-2--2--2-2--2--2-|-2-2--2--2-2--2--2-|-0-0--0--0-0--0--0-|-0-0--0--0-0--0--0-|
C|-2-2--2--2-2--2--2-|-2-2--2--2-2--2--2-|-0-0--0--0-0--0--0-|-0-0--0--0-0--0--0-|


E|-------------------|-------------------|-------------------|-------------------|
C|-------------------|-------------------|-------------------|-------------------|
G|-------------------|-------------------|-------------------|-------------------|
C|-----------5--5--5-|-----------5--5--5-|-----------4--4--4-|-----------4--4--4-|
G|-3-3--3--3-3--3--3-|-3-3--3--3-3--3--3-|-2-2--2--2-2--2--2-|-2-2--2--2-2--2--2-|
C|-3-3--3--3-3--3--3-|-3-3--3--3-3--3--3-|-2-2--2--2-2--2--2-|-2-2--2--2-2--2--2-|

E|-------------------|-------------------|-------------------|-------------------|
C|-------------------|-------------------|-------------------|-------------------|
G|-------------------|-------------------|-------------------|-------------------|
C|-----------5--5--5-|-----------5--5--5-|-----------7--7--7-|-----------7--7--7-|
G|-3-3--3--3-3--3--3-|-3-3--3--3-3--3--3-|-5-5--5--5-5--5--5-|-5-5--5--5-5--5--5-|
C|-3-3--3--3-3--3--3-|-3-3--3--3-3--3--3-|-5-5--5--5-5--5--5-|-5-5--5--5-5--5--5-|

Section 4
P.M**************************************************|
E|-------------------------|-------------------------|
C|-------------------------|-------------------------|
G|---4---------------------|-------------------------|
C|-7---6-7-4-6---4---------|-------------------------|
G|-------------7---5-7-4-5-|---4-----------------4-6-|
C|-------------------------|-7---6-7-4-6-0-4-6-7-----|

*****************************************************
|-------------------------|-------------------------|
|-------------------------|-------------------------|
|---4---------------------|-------------------------|
|-7---6-7-4-6---4---------|-------------------------|
|-------------7---5-7-4-5-|---4-----------------4-6-|
|-------------------------|-7---6-7-4-6-0-4-6-7-----|


P.M**************************************************|
E|-------------------------|-------------------------|
C|-------------------------|-------------------------|
G|-0-3---0-----------------|-------------------------|
C|-----5---3-5-3-5-0-3-----|-------------------------|
G|---------------------3-5-|-3-5-0-3---0-------0-3-5-|
C|-------------------------|---------5---0-3-5-------|

*****************************************************
|-------------------------|-------------------------|
|-------------------------|-------------------------|
|-0-3---0-----------------|-------------------------|
|-----5---3-5-3-5-0-3-----|-------------------------|
|---------------------3-5-|-3-5-0-3---0-------0-3-5-|
|-------------------------|---------5---0-3-5-------|


P.M**************************************************|
E|-------------------------|-------------------------|
C|-------------------------|-------------------------|
G|---4---------------------|-------------------------|
C|-7---6-7-4-6---4---------|-------------------------|
G|-------------7---5-7-4-5-|---4-----------------4-6-|
C|-------------------------|-7---6-7-4-6-0-4-6-7-----|

*****************************************************
|-------------------------|-------------------------|
|-------------------------|-------------------------|
|---4---------------------|-------------------------|
|-7---6-7-4-6---4---------|-------------------------|
|-------------7---5-7-4-5-|---4-----------------4-6-|
|-------------------------|-7---6-7-4-6-0-4-6-7-----|

P.M**************************************************|
E|-------------------------|-------------------------|
C|-------------------------|-------------------------|
G|-0-3---0-----------------|-------------------------|
C|-----5---3-5-3-5-0-3-----|-------------------------|
G|---------------------3-5-|-3-5-0-3---0-------0-3-5-|
C|-------------------------|---------5---0-3-5-------|

*
|-------------------------|-------------------------|
|-------------------------|-------------------------|
|-0-3---0-----------------|-------------------------|
|-----5---3-5-3-5-0-3-----|-------------------------|
|---------------------3-5-|-3-5-0-3---0-------0-3-5-|
|-------------------------|---------5---0-3-5-------|

Section 5

E|-------------------|-------------------|-------------------|-------------------|
C|-------------------|-------------------|-------------------|-------------------|
G|-------------------|-------------------|-------------------|-------------------|
C|-5-5--5--5-5--5--5-|-5-5--5--5-5--6--6-|-6p5--5--5-5--5--5-|-5-5--5--5-5--4--4-|
G|-5-5--5--5-5--5--5-|-5-5--5--5-5--6--6-|-6p5--5--5-5--5--5-|-5-5--5--5-5--4--4-|
C|-5-5--5--5-5--5--5-|-5-5--5--5-5--6--6-|-6p5--5--5-5--5--5-|-5-5--5--5-5--4--4-|

P.M***************************************************
E|-------------------------|-------------------------|
C|-------------------------|-------------------------|
G|-0-3---0-----------------|-------------------------|
C|-----5---3-5-3-5-0-3-----|-------------------------|
G|---------------------3-5-|-3-5-0-3---0-------0-3-5-|
C|-------------------------|---------5---0-3-5-------|

E|-------------------|--------------------|
C|-------------------|--------------------|
G|-------------------|--------------------|
C|-5-5--5--5-5--5--5-|-5-5--5--5-5--17s0--|
G|-5-5--5--5-5--5--5-|-5-5--5--5-5--17s0--|
C|-5-5--5--5-5--5--5-|-5-5--5--5-5--17s0--|

E|--------------------------|-----------------------|
C|--------------------------|-----------------------|
G|--------------------------|-----------------------|
C|-9--9---9---9--9---9---9--|-9ss11--11--11-0--0--0-|
G|-10-10--10--10-10--10--10-|-10s12--12--12-0--0--0-|
C|--------------------------|---------------0--0--0-|

|--------------------------|-----------------------|
|--------------------------|-----------------------|
|--------------------------|-----------------------|
|-9--9---9---9--9---9---9--|-9ss11--11--11-0--0--0-|
|-10-10--10--10-10--10--10-|-10s12--12--12-0--0--0-|
|--------------------------|---------------0--0--0-|


E|--------------------------|-----------------------|
C|--------------------------|-----------------------|
G|--------------------------|-----------------------|
C|-9--9---9---9--9---9---9--|-9ss11--11--11-0--0--0-|
G|-10-10--10--10-10--10--10-|-10s12--12--12-0--0--0-|
C|--------------------------|---------------0--0--0-|

|--------------------------|-----------------------|
|--------------------------|-----------------------|
|--------------------------|-----------------------|
|-9--9---9---9--9---9---9--|-9ss11--11--11-9sssss0-|
|-10-10--10--10-10--10--10-|-10s12--12--12-9sssss0-|
|--------------------------|---------------9sssss0-|


Section 6pt1

E|-------------------|-------------------|-------------------|----------------------|
C|-------------------|-------------------|-------------------|----------------------|
G|-------------------|-------------------|-------------------|----------------------|
C|-5-5--5--5-5--5--5-|-5s9--9--9-0--0--0-|-5-5--5--5-5--5--5-|-5s9--9--9-13--13--13-|
G|-5-5--5--5-5--5--5-|-5s9--9--9-0--0--0-|-5-5--5--5-5--5--5-|-5s9--9--9-13--13--13-|
C|-5-5--5--5-5--5--5-|-5s9--9--9-0--0--0-|-5-5--5--5-5--5--5-|-5s9--9--9-13--13--13-|

E|-------------------|----------------------|-------------------|----------------------|
C|-------------------|----------------------|-------------------|----------------------|
G|-------------------|----------------------|-------------------|----------------------|
C|-5-5--5--5-5--5--5-|-5s9--9--9-11--11--11-|-5-5--5--5-5--5--5-|-5s9--9--9-11--11--11-|
G|-5-5--5--5-5--5--5-|-5s9--9--9-11--11--11-|-5-5--5--5-5--5--5-|-5s9--9--9-11--11--11-|
C|-5-5--5--5-5--5--5-|-5s9--9--9-11--11--11-|-5-5--5--5-5--5--5-|-5s9--9--9-11--11--11-|

E|-------------------|-------------------|-------------------|----------------------|
C|-------------------|-------------------|-------------------|----------------------|
G|-------------------|-------------------|-------------------|----------------------|
C|-5-5--5--5-5--5--5-|-5s9--9--9-0--0--0-|-5-5--5--5-5--5--5-|-5s9--9--9-13--13--13-|
G|-5-5--5--5-5--5--5-|-5s9--9--9-0--0--0-|-5-5--5--5-5--5--5-|-5s9--9--9-13--13--13-|
C|-5-5--5--5-5--5--5-|-5s9--9--9-0--0--0-|-5-5--5--5-5--5--5-|-5s9--9--9-13--13--13-|

E|-------------------|----------------------|-------------------|----------------------|
C|-------------------|----------------------|-------------------|----------------------|
G|-------------------|----------------------|-------------------|----------------------|
C|-5-5--5--5-5--5--5-|-5s9--9--9-11--11--11-|-5-5--5--5-5--5--5-|-5s9--9--9-11--11--11-|
G|-5-5--5--5-5--5--5-|-5s9--9--9-11--11--11-|-5-5--5--5-5--5--5-|-5s9--9--9-11--11--11-|
C|-5-5--5--5-5--5--5-|-5s9--9--9-11--11--11-|-5-5--5--5-5--5--5-|-5s9--9--9-11--11--11-|

Section 6pt2

E|-------------------|----------------------|-------------------|----------------------|
C|-------------------|----------------------|-------------------|----------------------|
G|-------------------|----------------------|-------------------|----------------------|
C|-5-5--5--5-5--5--5-|-5s9--9--9-11--11--11-|-5-5--5--5-5--5--5-|-5s9--9--9-11--11--11-|
G|-5-5--5--5-5--5--5-|-5s9--9--9-11--11--11-|-5-5--5--5-5--5--5-|-5s9--9--9-11--11--11-|
C|-5-5--5--5-5--5--5-|-5s9--9--9-11--11--11-|-5-5--5--5-5--5--5-|-5s9--9--9-11--11--11-|

E|-------------------|----------------------|-------------------|----------------------|
C|-------------------|----------------------|-------------------|----------------------|
G|-------------------|----------------------|-------------------|----------------------|
C|-5-5--5--5-5--5--5-|-5s9--9--9-11--11--11-|-5-5--5--5-5--5--5-|-5s9--9--9-11--11--11-|
G|-5-5--5--5-5--5--5-|-5s9--9--9-11--11--11-|-5-5--5--5-5--5--5-|-5s9--9--9-11--11--11-|
C|-5-5--5--5-5--5--5-|-5s9--9--9-11--11--11-|-5-5--5--5-5--5--5-|-5s9--9--9-11--11--11-|

E|-------------------|----------------------|-------------------|----------------------|
C|-------------------|----------------------|-------------------|----------------------|
G|-------------------|----------------------|-------------------|----------------------|
C|-5-5--5--5-5--5--5-|-5s9--9--9-11--11--11-|-5-5--5--5-5--5--5-|-5s9--9--9-11--11--11-|
G|-5-5--5--5-5--5--5-|-5s9--9--9-11--11--11-|-5-5--5--5-5--5--5-|-5s9--9--9-11--11--11-|
C|-5-5--5--5-5--5--5-|-5s9--9--9-11--11--11-|-5-5--5--5-5--5--5-|-5s9--9--9-11--11--11-|

E|-------------------|----------------------|-------------------|----------------------|
C|-------------------|----------------------|-------------------|----------------------|
G|-------------------|----------------------|-------------------|----------------------|
C|-5-5--5--5-5--5--5-|-5s9--9--9-11--11--11-|-5-5--5--5-5--5--5-|-5s9--9--9-11--11--11-|
G|-5-5--5--5-5--5--5-|-5s9--9--9-11--11--11-|-5-5--5--5-5--5--5-|-5s9--9--9-11--11--11-|
C|-5-5--5--5-5--5--5-|-5s9--9--9-11--11--11-|-5-5--5--5-5--5--5-|-5s9--9--9-11--11--11-|

Section 7


P.M*******************************************************************************
E|-------------------|-------------------|-------------------|-------------------|
C|-------------------|-------------------|-------------------|-------------------|
G|-------------------|-------------------|-------------------|-------------------|
C|-5-5--5--5-5--5--5-|-5-5--5--5-0--0000-|-5-5--5--5-5--5--5-|-5-5--5--5-0--0000-|
G|-5-5--5--5-5--5--5-|-5-5--5--5-0--0000-|-5-5--5--5-5--5--5-|-5-5--5--5-0--0000-|
C|-5-5--5--5-5--5--5-|-5-5--5--5-0--0000-|-5-5--5--5-5--5--5-|-5-5--5--5-0--0000-|


P.M*******************************************************************************
E|-------------------|-------------------|-------------------|-------------------|
C|-------------------|-------------------|-------------------|-------------------|
G|-------------------|-------------------|-------------------|-------------------|
C|-5-5--5--5-5--5--5-|-5-5--5--5-0--0000-|-5-5--5--5-5--5--5-|-5-5--5--5-5******-|
G|-5-5--5--5-5--5--5-|-5-5--5--5-0--0000-|-5-5--5--5-5--5--5-|-5-5--5--5-5******-|
C|-5-5--5--5-5--5--5-|-5-5--5--5-0--0000-|-5-5--5--5-5--5--5-|-5-5--5--5-5******-|

E|-------------------|-------------------|-------------------|-------------------|
C|-------------------|-------------------|-------------------|-------------------|
G|-------------------|-------------------|-------------------|-------------------|
C|-0*****************|*******************|*******************|*******************|
G|-0*****************|*******************|*******************|*******************|
C|-0*****************|*******************|*******************|*******************|

v    = vibrato
m    = play note then mute
x    = dead note
b    = bend
*    = let ring
P.M* = palm mute
br   = bend and release
s    = slide to next chord/note
Tap to rate this tab
# A B C D E F G H I J K L M N O P Q R S T U V W X Y Z