Song name
# A B C D E F G H I J K L M N O P Q R S T U V W X Y Z

Devin Townsend - Hyperdrive tab


    >>>>>>>The guitar is tuned to Open C for this song (CGCGCe)<<<<<<<


I want to thank ghaleon0075 and Morphine from the HevyDevy forums for helping me get the 
right!


Intro & Chorus

[code]e----------------------------------------------------------------------------|
C----------------------------------------------------------------------------------|
G-3--------3--------5--------5--------3--------3-----------------------------------|
C-3--------3--------5--------5--------3--------3--------0--------------------------|
G-1-repeat-0-repeat-3-repeat-2-repeat-1-repeat-0-repeat-0--------------------------|
C-------------------------------------------------------0--------------------------|

Harmonics

e--------------------------------------------------------------------------|
C--------------------------------------------------------------------------|
G--------------------------------------------------------------------------|
C-----------------7-------------------------------7------------------------|
G-----7-----8-----------8-----8-7-----7-----8-----------8-----8-7----------|
C-0-0---0-0---0-0---0-0---0-0-----5-5---5-5---5-5---5-5---5-5--------------|


e--------------------------------------------------------------------------|
C--------------------------------------------------------------------------|
G--------------------------------------------------------------------------|
C-----------------7-------------------------------7------------------------|
G-----7-----8-----------8-----8-7-----7-----8-----------8-----8-7----------|
C-3-3---3-3---3-3---3-3---3-3-----0-0---0-0---0-0---0-0---0-0--------------|

"Other" Part

e--------------------------------------------------------------------------|
C---------------------------------------2---3-----2---3---2-3-3-3-3--------|
G--------------------------------------------------------------------------|
C-5-------------------------------------2---3-----2---3---2-3-3-3-3--------|
G-5------------------------------------------------------------------------|
C-5-Watch video for picking pattern-0-0---0---0-0---0---0------------------|

End of the last part

e--------------------------------------------------------------------------|
C--------------------------------------------------------------------------|
G--------------------------------------------------------------------------|
C-0------------------------------------------------------------------------|
G-0------------------------------------------------------------------------|
C-0-repeated---------------------------------------------------------------|[/code]
Tap to rate this tab
# A B C D E F G H I J K L M N O P Q R S T U V W X Y Z