Song name
# A B C D E F G H I J K L M N O P Q R S T U V W X Y Z

Devin Townsend - Solar Winds tab

Artist: Devin Townsend (Ziltoid)
Song: Solar Winds

Tuning: GCGCGCE (7 String tuned open C)

This is not all of the song solar winds but the main part of it. Hope it sounds ok.

|----------------------------------------------------------------|
|----------------------------------------------------------------|
|----------------------------------------------------------------|
|----------------------------------------------------------------|
|----------------------------------------------------------------|
|----------------------------------------------------------------|
|-----0~~~~~~~~~~~~~~~~~~----------------------------------------|
       Song fades in on this note




     *with chorus and lots of echo
|--------------------------------------------------------------|
|---------0----------------------------------------------------|
|------8-----5~~------5/7--3-----------------------------------|
|---------------------------------------3/5~~~~5/7-------------|
|--------------------------------------------------------------|
|--------------------------------------------------------------|
|--------------------------------------------------------------|


|------------------------------------------------------------|
|-----0------------------------------------------------------|
|---8-----5~~------5/7--3------------------------------------|
|---------------------------------------3/5--5p0-------------|
|------------------------------------------------------------|
|------------------------------------------------------------|
|------------------------------------------------------------|


|-------------------------------------------------------------|
|---------0---------------------------------------------------|
|------8-----5~~------5/7--3----------------------------------|
|---------------------------------------3/5~~~~5/7------------|
|-------------------------------------------------------------|
|-------------------------------------------------------------|
|-------------------------------------------------------------|

|------------------------------------------------------------|
|-------------------0----------0-----------------------------|
|------------------------------------------------------------|
|------------------------------------------------------------|
|----------5-7-8------8/7-7/3------3/5-----------------------|
|------------------------------------------------------------|
|------------------------------------------------------------|
Tap to rate this tab
# A B C D E F G H I J K L M N O P Q R S T U V W X Y Z