Song name
# A B C D E F G H I J K L M N O P Q R S T U V W X Y Z

Devo - Uncontrollable Urge tab

-------------------------------------------------------------------------------
			     Uncontrollable Urge - DEVO
-------------------------------------------------------------------------------
Tabbed by:Howard Moon
Email:showersjulie@hotmail.com

Tuning:standard (recording from "Are We Not Men" is a little sharp)

Intro
e|---------------------------------------------------------------------------|
B|---------------------------------------------------------------------------|
G|-2-2-2-/-4----2-2-2-/-4----2-2-2-/-4444444444444444444444------------------|
D|-3-3-3-/-5----3-3-3-/-5----3-3-3-/-5555555555555555555555------------------|
A|-3-3-3-/-5----3-3-3-/-5----3-3-3-/-5555555555555555555555------------------|
E|-1-1-1-/-3----1-1-1-/-3----1-1-1-/-3333333333333333333333------------------|

Main Riff -Play 8 times(listen to recording for exact rhythm)
e|---------------------------------------------------------------------------|
B|---------------------------------------------------------------------------|
G|-2-----1-------------------------------------------------------------------|
D|-2-----2-------------------------------------------------------------------|
A|-0-----2-------------------------------------------------------------------|
E|---3p0-0-------------------------------------------------------------------|

Pre-Verse breakdown -Play 10 times then Main Riff
e|--------------------------------------------------------------------------|
B|--------------------------------------------------------------------------|
G|-22--------22--------22--------22-----------------------------------------|
D|-22--------22--------22--------22-----------------------------------------|
A|-00--------00--------00--------00-----------------------------------------|
E|--------------------------------------------------------------------------|

Chorus
e|---------------------------------------------------------------------------|
B|---------------------------------------------------------------------------|
G|-7-------------5--------------4--------------------------------------------|
D|-7-------------5--------------5--------------------------------------------|
A|-5-------------3--------------5--------------------------------------------|
E|------------------------------3--------------------------------------------|
     He's got an uncontrollable urge

e|---------------------------------------------------------------------------|
B|---------------------------------------------------------------------------|
G|-7-------------5--------------2--------------------------------------------|
D|-7-------------5--------------3--------------------------------------------|
A|-5-------------3--------------3--------------------------------------------|
E|------------------------------1--------------------------------------------|
     He's got an uncontrollable urge
    
   D   C   F   G   D   C
e|--------------------------------------------------------------------------|
B|--------------------------------------------------------------------------|
G|-7---5---4---4---7---5----------------------------------------------------|
D|-7---5---3---5---7---5-Back to Main Riff----------------------------------|
A|-5---3---3---5---5---3----------------------------------------------------|
E|---------1---3------------------------------------------------------------|


| /  slide up
| \  slide down
| h  hammer-on
| p  pull-off
| ~  vibrato
| +  harmonic
| x  Mute note
===============================================================================
Tap to rate this tab
# A B C D E F G H I J K L M N O P Q R S T U V W X Y Z