Dewolff - The Thrills That Come Along With The Landing Of A Flying Sauce tab

Hi, this is my first tab, from the band 'Dewolff'

If you have any suggestions, please tell me!


Reverb - speed 188
E|-----------------------------------------------------------------------------------------------|
B|-----------------------------------------------------------------------------------------------|
G|-----------------------------------------------------------------------------------------------|
D|----------------------------------------------------------------5-5-5-5-8-8-7-6-5-5-5-5-8-8-7-6|
A|5-5-5-5-8-8-7-6-5-5-5-5-8-8-7-6-5-5-5-5-8-8-7-6-5-5-5-5-8-8-7-6--------------------------------|
E|-----------------------------------------------------------------------------------------------|


E|-----------------------------------------------------------------------------------------------|
B|-----------------------------------------------------------------------------------------------|
G|-----------------------------------------------------------------------------------------------|
D|-----------------------------------7-7-7-7-10-10-9-8-5-5-5-5-8---------------------------------|
A|--5-5-5-5-8-8-7-6-5-5-5-5-8-8-7-6--------------------------------------------------------------|
E|-----------------------------------------------------------------------------------------------|


Distortion
E|--------------------------------------|
B|--------------------------------------|
G|--7-7-7-7-7-7-7-7-10-10-10-10-9-9-8-8-|
D|--7-7-7-7-7-7-7-7-10-10-10-10-9-9-8-8-|
A|--5-5-5-5-5-5-5-5-8--8--8--8--7-7-6-6-|   3x
E|--------------------------------------|

E|---------------------------------|
B|---------------------------------|
G|--7-7-7-7-7-7-7-7-10-10-10-10-9--|
D|--7-7-7-7-7-7-7-7-10-10-10-10-9--|
A|--5-5-5-5-5-5-5-5-8--8--8--8--7--|
E|---------------------------------|

E|--------------------------------------------------------------------------------------------|
B|--------------------------------------------------------------------------------------------|
G|--12-12-12-12-12-12-12-15-15-15-15-14-14-13-13-12-12-12-12-12-12-12-15-15-15-15-14-14-13-13-|
D|--12-12-12-12-12-12-12-15-15-15-15-14-14-13-13-12-12-12-12-12-12-12-15-15-15-15-14-14-13-13-|
A|--10-10-10-10-10-10-10-13-13-13-13-12-12-11-11-10-10-10-10-10-10-10-13-13-13-13-12-12-11-11-|
E|--------------------------------------------------------------------------------------------|


E|------------------------------------------------------------------------|
B|------------------------------------------------------------------------|
G|--7-7-7-7-7-7-7-7-10-10-10-10-9-9-8-8-7-7-7-7-7-7-7-7-10-10-10-10-9-9---|
D|--7-7-7-7-7-7-7-7-10-10-10-10-9-9-8-8-7-7-7-7-7-7-7-7-10-10-10-10-9-9---|
A|--5-5-5-5-5-5-5-5-8--8--8--8--7-7-6-6-5-5-5-5-5-5-5-5-8--8--8--8--7-7---|
E|------------------------------------------------------------------------|

E|-----------------------------------------------------------------------|
B|-----------------------------------------------------------------------|
G|--14-14-14-14-14-14-14-14-17-17-17-17-16-16-15-15-12-12-12-12-12-12-15-|
D|--14-14-14-14-14-14-14-14-17-17-17-17-16-16-15-15-12-12-12-12-12-12-15-|
A|--12-12-12-12-12-12-12-12-15-15-15-15-14-14-13-13-10-10-10-10-10-10-13-|
E|-----------------------------------------------------------------------|

E|------------------------------------------------------------------------|
B|------------------------------------------------------------------------|
G|--7-7-7-7-7-7-7-7-10-10-10-10-9-9-8-8-7-7-7-7-7-7-7-7-10-10-10-10-9-9---|
D|--7-7-7-7-7-7-7-7-10-10-10-10-9-9-8-8-7-7-7-7-7-7-7-7-10-10-10-10-9-9---|
A|--5-5-5-5-5-5-5-5-8--8--8--8--7-7-6-6-5-5-5-5-5-5-5-5-8--8--8--8--7-7---|
E|------------------------------------------------------------------------|

E|--------------------------------------------------------------------------------------------|
B|--------------------------------------------------------------------------------------------|
G|--12-12-12-12-12-12-12-15-15-15-15-14-14-13-13-12-12-12-12-12-12-12-15-15-15-15-14-14-13-13-|
D|--12-12-12-12-12-12-12-15-15-15-15-14-14-13-13-12-12-12-12-12-12-12-15-15-15-15-14-14-13-13-|
A|--10-10-10-10-10-10-10-13-13-13-13-12-12-11-11-10-10-10-10-10-10-10-13-13-13-13-12-12-11-11-|
E|--------------------------------------------------------------------------------------------|

E|-----------------------------------------------------------------------|
B|-----------------------------------------------------------------------|
G|--14-14-14-14-14-14-14-14-17-17-17-17-16-16-15-15-12-12-12-12-12-12-15-|
D|--14-14-14-14-14-14-14-14-17-17-17-17-16-16-15-15-12-12-12-12-12-12-15-|
A|--12-12-12-12-12-12-12-12-15-15-15-15-14-14-13-13-10-10-10-10-10-10-13-|
E|-----------------------------------------------------------------------|
							http://www.dewolff.nu/
Tap to rate this tab
 
# A B C D E F G H I J K L M N O P Q R S T U V W X Y Z