Song name
# A B C D E F G H I J K L M N O P Q R S T U V W X Y Z

Diamond Head - Sucking My Love tab

Intro/Chorus
e-------------------------------------|
B-------------------------------------|
G-------------------------------------|
D-12-9--------------------------------|
A-10-7-----5-4-7-----3-2-3------5-4-5-|
E------0-0-------0-0-------0-0--------|

Verse
e--------------------------------|
B--------------------------------|
G--------------------------------|
D--------------------------------|
A-----10-7-------5-7---------5-7-|
E-0-0------0-0-0------0--5-7-----|

Then this
e---------------------------|
B---------------------------|
G---------------------------|
D---------------------------|
A-0-0-3-0-0-5-0-0-3---3-----|
E---------------------------|

Before Solo
e----------------------:
B----------------------:
G-11bp9-9--7-7-9---9p7-: 3x
D----------------9-----:
A----------------------:
E----------------------:

Solo (Coming Soon)

Interlude (under solo)
e-------------------------------------------|
B-------------------------------------------|
G-------------------------------------------|
D-------------------------------------------|
A----------------------2-33333333333333-2---|
E-00000000000000000-3---------------------3-|

e---------------------------------------------------------------------------------|
B---------------------------------------------------------------------------------|
G---------------------------------------------------------------------------------|
D---------------------------------------------------------------------------------|
A---------------------------------------------------------------------------------|
E-0-0-0-0-0-0-0-0-10-10-10-10-10-10-10-10-8-8-8-8-8-8-8-8-10-10-10-10-10-10-10-10-|

e-------------------------------------------------------------------------|
B-------------------------------------------------------------------------|
G-------------------------------------------------------------------------|
D-------------------------------------------------------------------------|
A-------------------------------------------------------------------------|
E-0-0-0-0-0-0-0-0-7-7-7-7-7-7-7-7-8-8-8-8-8-8-8-8-10-10-10-10-10-10-10-10-|

End of Interlude
e------------------------------------|
B------------------------------------|
G------------------------------------|
D------------------------------------|
A----------------3-------------------|
E-0-2-3-5-3-2-3-----0-2-3-5-3-2-3--0-|

J0rdy
Tap to rate this tab
# A B C D E F G H I J K L M N O P Q R S T U V W X Y Z