Song name
# A B C D E F G H I J K L M N O P Q R S T U V W X Y Z

Diazepunk - Nid tab

Help us improve GuitareTab! Take a short survey!
(: wait a sec, its not my tab.. i just post it here cuz i saw the real tab and i
thought it was gonna be a waste if i didnt show it off (:

[Intro]

e|----------------------------------------------------------------------|
B|-3-3-3-3-3-3--5-3-3--3-3-3-3-3-3--5-3-3--1-1-1-1-1-1-0h3h5p3-----4--3-|
G|-4-4-4-4-4-4--4-4-4--4-4-4-4-4-4--4-4-4--3-3-3-3-3-3--------5p4--5--4-|
D|-5-5-5-5-5-5--5-5-5--3-3-3-3-3-3--3-3-3--2-2-2-2-2-2-------------4--3-|
A|----------------------------------------------------------------------|
E|----------------------------------------------------------------------|

[Verso]

Em      D5         C5
sabias que a veces yo
Em      D5         C5
en tus ojos no veo brillar
Em          D5           C5
busco una cerveza entre los recuerdos
G5               C5 B5
donde alguna vez
Em   C5    G5            D5
tu y yo pasamos algn tiempo juntos

[Coro]

E5        D5            C5
Nunca sabre bien que decir sin ti nada tiene sentido
e|--------------------------------------------------|
B|--------------------------------------------------|
G|--9*---11*------------12*-------------------------|
D|--x*----x*-------------x*-------------------------|
A|--7*----9*------------10*-------------------------|
E|--------------------------------------------------|

E5        D5            C5        C5
solo yo estoy si tu no estas ... eres mi nica necesidad
e|--------------------------------------------------|
B|--------------------------------------------------|
G|--9*---11*------------12*--------12---------------|
D|--x*----x*-------------x*---------x---------------|
A|--7*----9*------------10*--------10---------------|
E|--------------------------------------------------|

[Verso]

Em      D5           C5
Todo el tiempo eres especial
Em      D5         C5
Yo un tonto y nada mas.
Em            D5            C5
Capaz solo de sonrer si tu sonrisa
G5                       C5 B5
logra como el sol brillar
Em    C5   G5            D5                Em
tu y yo una cerveza y dejando al tiempo pasar
 G5     B5 D5     C5   D5    G5      [1]
lo siento    kisas no debi decirlo

[Coro]

E5        D5            C5
Nunca sabre bien que decir sin ti nada tiene sentido
e|--------------------------------------------------|
B|--------------------------------------------------|
G|--9*---11*------------12*-------------------------|
D|--x*----x*-------------x*-------------------------|
A|--7*----9*------------10*-------------------------|
E|--------------------------------------------------|

E5        D5            C5        C5
solo yo estoy si tu no estas ... eres mi nica necesidad
e|--------------------------------------------------|
B|--------------------------------------------------|
G|--9*---11*------------12*--------12---------------|
D|--x*----x*-------------x*---------x---------------|
A|--7*----9*------------10*--------10---------------|
E|--------------------------------------------------|

[Intro]

e|----------------------------------------------------------------------|
B|-3-3-3-3-3-3--5-3-3--3-3-3-3-3-3--5-3-3--1-1-1-1-1-1-0h3h5p3-----4--3-|
G|-4-4-4-4-4-4--4-4-4--4-4-4-4-4-4--4-4-4--3-3-3-3-3-3--------5p4--5--4-|
D|-5-5-5-5-5-5--5-5-5--3-3-3-3-3-3--3-3-3--2-2-2-2-2-2-------------4--3-|
A|----------------------------------------------------------------------|
E|----------------------------------------------------------------------|

[Interdulio]

   E5     D5    C5
e|------------------------|
B|------------------------|
G|--9*---11*----12*-------| [x2]
D|--x*----x*-----x*-------|
A|--7*----9*----10*-------|
E|------------------------|


e|--------------------------------------------|
B|--------------------------------------------|
G|--------------------------------------------|
D|-5-4------5-7-5----5-4--5-4-2----5-4-2----2-|
A|-----5--5--------5------------5--------5----|
E|--------------------------------------------|

e|--------------------------------------------|
B|--------------------------------------------|
G|--------------------------------------------|
D|-2-5-4------5-7--5-4---5-4-5--5/7-5-4-5-4---|
A|-------5--5----------5--------------------5-|
E|--------------------------------------------|

[Solo]

e|-----------------------------------------------------|
B|-8v-7v----------------8-7-8-10v--8-10-12v--10-12-15v-|
G|-------7v-----7-9-7v---------------------------------|
D|-----------7-9---------------------------------------|
A|-----------------------------------------------------|
E|-----------------------------------------------------|

e|----------12--------------15b-14-----15b-14----------|
B|-12-12-15----15-12--15v----------15---------15--17bv-|
G|-----------------------------------------------------|
D|-----------------------------------------------------|
A|-----------------------------------------------------|
E|-----------------------------------------------------|

[Coro]

E5        D5            C5
Nunca sabre bien que decir sin ti nada tiene sentido
e|--------------------------------------------------|
B|--------------------------------------------------|
G|--9*---11*------------12*-------------------------|
D|--x*----x*-------------x*-------------------------|
A|--7*----9*------------10*-------------------------|
E|--------------------------------------------------|

E5        D5            C5        C5
solo yo estoy si tu no estas ... no lo notaste
e|--------------------------------------------------|
B|--------------------------------------------------|
G|--9*---11*------------12*--------12---------------|
D|--x*----x*-------------x*---------x---------------|
A|--7*----9*------------10*--------10---------------|
E|--------------------------------------------------|

______________________________________________________________________

NOTA:

* = Harmonic
v = Vibrato
b = Bend
h = Hammer 
p = Pull of

      [1]
|---------------|
|---------------|
|-7---------9bv-|
|---10-9-10-----|
|---------------|
|---------------|

Related for Nid tab